Cifra Club

River's soul

The Warning

Tablatura: Principal (guitarra)
Tom: E
Intro:

C#m            E
Drown yourself in the river
A           B
Bring along the other sinners
C#m            E
Burn down with the flame

Riff 1 
E|-------------------------------------------------------------------------|
B|-----4h5p4h5p4h5p4-----4h5p4h5p4h5p4-----4h5p4h5p4h5p4-----4h5p4h5p4h5p4-|
G|--6-----------------6-----------------4-----------------4----------------|
D|-------------------------------------------------------------------------|
A|-------------------------------------------------------------------------|
E|-------------------------------------------------------------------------|

E|-------------------------------------------------------------------|
B|-----4h5p4h5p4h5p4-------4h5p4h5p4h5p4-----4h5p4h5p4h5p4-----------|
G|----------------------------------------4-----------------4--5--6--|  (3x)
D|--7-----------------7----------------------------------------------|
A|-------------------------------------------------------------------|
E|-------------------------------------------------------------------|

Verso:

Riff 2
E|--------------------------------------------------------------------------------------------|
B|--------------------------------------------------------------------------------------------|
G|-----6-----6-----6-----6-----9-----9-----9-----9--------------------------------------------|
D|-----------------------------------------------------7-----7-----7-----9-----9-----9-----9--|
A|--4-----4-----4-----4-----7-----7-----7-----7-----------------------------------------------|
E|--------------------------------------------------5-----5-----5-----7-----7-----7-----7-----|

C#m               E
When I look back in my life
A            B
I regret the mistakes I made
C#m             E
Now I don't know what I'll find
A                B
In my search for a new way of life

C#m           E
There must be someone out there
A               B
Who understands the way I feel
C#m           E
I cannot be alone in this
A         B
Oh oh oh

Refrão:

C#m            E
Drown yourself in the river
A              B
Bring along the other sinners
C#m            E
Burn down with the flame

Riff 3
E|--------------------------------------------------|
B|--------------------------------------------------|
G|--------------------------------------------------|
D|--------------------------------------------------|
A|--------------4-----4--6--------------6-----6--7--|
E|--5--4--5--7-----7--------7--5--7--9-----9--------|

C#m            E
Let the waves take control
A              B
Don't be afraid of what's to come
C#            E
Just go with the flow

Riff 4
E|-----------------------------|
B|-----------------------------|
G|-----------------------------|
D|-----------------------------|
A|--------------4-----4--6-----|
E|--5--4--5--7-----7--------7--|

             C#m
Of the rivers soul

[Riff 1]

Verso:

C#m                E
I am hearing my inner voice
A                  B
Round and round in my mind it goes
C#m                E
It's telling me to forgive myself
A                  B
From the moments wasted and spent
C#m                E
Now I have learned from my painful past
A                  B
Not to worry about my messed up mind
C#m                E
All the lies I leave behind
A                 B
Oh oh oh

Refrão:

C#m            E
Drown yourself in the river
A             B
Bring along the other sinners
C#m          E
Burn down with the flame

[Riff 3]

C#m          E
Let the waves take control
A             B
Don't be afraid of what's to come
C#m         E
Just go with the flow

[Riff 5]

E|-----------------------------------------|
B|-----------------------------------------|
G|-----------------------------------------|
D|-----------------------------------------|
A|--------------4-----4--6--------------6--|
E|--5--4--5--7-----7--------7--5--7--9-----|

                 C#m
I can't see the light in your eyes
             E
Since your lies took over your mind
A                                  B
I know you are confused but your ways
                     C#m
Never worked for us so now you must choose
E           A         B
To win or loose

C#m            E
Drown yourself in the river
A           B
Bring along the other sinners
C#m        E
Burn down with the flame
C#m          E
Let the waves take control
A               B
Don't be afraid of what's to come
C#m       E
Just go with the flow

[Riff 4]

              C#m
Of the rivers soul
reproducciones 53
Acordes para:
    Colaboración y revision:
    • Marcus Freitas

    0 comentarios

    mostrar más comentarios

    ¿Conseguiste tocar?

    0 tocaron 0 aún no

    ¡Graba un vídeo tocando River's soul y envianoslo!

    00:00 / 00:00
    outros vídeos desta música
    repetir qualidade Automático
    Outros vídeos desta música
    00:00 / 00:00
    Automático
    OK