Cifra Club

Show Me The Light

The Warning

Tablatura: Principal (guitarra)
Tom: G
[Intro]

E|------------------------|------------------------|------------------------|------------------------|
B|--------6-------6-------|-----------4------------|--------6-------6-------|-----------4------------|
G|-----6-----8-------6----|--------6-------6-------|-----6-----8-------6----|--------6-------6-------|
D|--8---------------------|-----6-------------6----|--8---------------------|-----6-------------6----|
A|--8---------------------|--4---------------------|--8---------------------|--4---------------------|
E|--6---------------------|--4---------------------|--6---------------------|--4---------------------|

E|------------------------|------------------------|
B|--------6-------6-------|-----------4------------|
G|-----6-----8-------6----|--------6-------6-------|
D|--8---------------------|-----6-------------6----|
A|--8---------------------|--4---------------------|
E|--6---------------------|--4---------------------|

Take my pain and despair and throw it away

E|------------------------|------------------------|
B|--------6-------6-------|-----------4------------|
G|-----6-----8-------6----|--------6-------6-------|
D|--8---------------------|-----6-------------6----|
A|--8---------------------|--4---------------------|
E|--6---------------------|--4---------------------|

Let them starve by themselves let them decay we don't ne-

E|------------------------|------------------------|
B|--------6-------6-------|--------6-------6-------|
G|-----6-----8-------6----|-----6-----8-------6----|
D|--8---------------------|--8---------------------|
A|--8---------------------|--8---------------------|
E|--6---------------------|--6---------------------|

-ed              them   any-

E|------------------------|------------------------|
B|-----------4------------|------------------------|
G|--------6-------6-------|------------------------|
D|-----6-------------6----|------------------------|
A|--4---------------------|------------------------|
E|--4---------------------|------------------------|

   -more

E|------------------------|------------------------|
B|--------6-------6-------|-----------4------------|
G|-----6-----8-------6----|--------6-------6-------|
D|--8---------------------|-----6-------------6----|
A|--8---------------------|--4---------------------|
E|--6---------------------|--4---------------------|

When we crumble to the ground we'll build ourselves up

E|------------------------|------------------------|
B|--------6-------6-------|-----------4------------|
G|-----6-----8-------6----|--------6-------6-------|
D|--8---------------------|-----6-------------6----|
A|--8---------------------|--4---------------------|
E|--6---------------------|--4---------------------|

When we're lost we'll be found please don't give up all the

E|------------------------|------------------------|
B|--------7--6------------|-----------4------------|
G|-----6----------6-------|--------6-------6-------|
D|--8----------------8----|-----6-------------6----|
A|--8---------------------|--4---------------------|
E|--6---------------------|--4---------------------|
   things             that we                  will

E|------------------------|-------------1--1--1--1--|
B|-----------4------------|-------------1--1--1--1--|
G|--------6-------6-----6-|-------------2--2--2--2--|
D|-----6-------------6----|--6----------3--3--3--3--|
A|--4---------------------|-------------3--3--3--3--|
E|--4---------------------|-------------1--1--1--1--|

   have

F#             D#m                 C#
Tell me how it feels like take off your disguise
               F
Show me the light
F#              D#m
Bring me down into your level
     F
Make me a rebel

The stealer of your

E|------------------------|------------------------|
B|--------6-------6-------|-----------4------------|
G|-----6-----8-------6----|--------6-------6-------|
D|--8---------------------|-----6-------------6----|
A|--8---------------------|--4---------------------|
E|--6---------------------|--4---------------------| (x2)

   heart

E|------------------------|------------------------|
B|--------6-------6-------|-----------4------------|
G|-----6-----8-------6----|--------6-------6-------|
D|--8---------------------|-----6-------------6----|
A|--8---------------------|--4---------------------|
E|--6---------------------|--4---------------------|

Stop the wait here's your chance for me not to look back

E|------------------------|------------------------|
B|--------6-------6-------|-----------4------------|
G|-----6-----8-------6----|--------6-------6-------|
D|--8---------------------|-----6-------------6----|
A|--8---------------------|--4---------------------|
E|--6---------------------|--4---------------------|

Let's be free show the world we'll turn out right what we ne-

E|------------------------|------------------------|
B|--------6-------6-------|--------6-------6-------|
G|-----6-----8-------6----|-----6-----8-------6----|
D|--8---------------------|--8---------------------|
A|--8---------------------|--8---------------------|
E|--6---------------------|--6---------------------|

    -ed                 is what                  we

E|------------------------|------------------------|
B|-----------4------------|------------------------|
G|--------6-------6-------|------------------------|
D|-----6-------------6----|------------------------|
A|--4---------------------|------------------------|
E|--4---------------------|------------------------|

   have

E|------------------------|------------------------|
B|--------6-------6-------|-----------4------------|
G|-----6-----8-------6----|--------6-------6-------|
D|--8---------------------|-----6-------------6----|
A|--8---------------------|--4---------------------|
E|--6---------------------|--4---------------------|

The two of us, it's enough let's make our way

E|------------------------|------------------------|
B|--------6-------6-------|-----------4------------|
G|-----6-----8-------6----|--------6-------6-------|
D|--8---------------------|-----6-------------6----|
A|--8---------------------|--4---------------------|
E|--6---------------------|--4---------------------|

Let's forget yesterday start over again take me fa-

E|------------------------|------------------------|
B|--------7--6------------|-----------4------------|
G|-----6----------6-------|--------6-------6-------|
D|--8----------------8----|-----6-------------6----|
A|--8---------------------|--4---------------------|
E|--6---------------------|--4---------------------|
   -r                don't think                it

E|------------------------|-------------1--1--1--1--|
B|-----------4------------|-------------1--1--1--1--|
G|--------6-------6-----6-|-------------2--2--2--2--|
D|-----6-------------6----|--6----------3--3--3--3--|
A|--4---------------------|-------------3--3--3--3--|
E|--4---------------------|-------------1--1--1--1--|

   twice

F#             D#m                 C#
Tell me how it feels like take off your disguise
               F
Show me the light
F#              D#m
Bring me down into your level
     F
Make me a rebel
A#m            F#
Hold me please never leave
  C#              F
I need your daily poisoning
     A#m                 F#
Your words so deep cut into me
C#                       F
Whispers so loud they're deafening
A#m            F#
Hold me please never leave
  C#              F
I need your daily poisoning
     A#m                 F#
Your words so deep cut into me
C#                       F
Whispers so loud they're deafening

[Solo]

E|--11-/13--------------|--------13-\11--9--9--|----------------------|----------------9--8--|
B|----------------------|----------------------|----------------------|-------/9---11--------|
G|----------------------|----------------------|----------------------|----------------------|
D|----------------------|----------------------|----------------------|----------------------|
A|----------------------|----------------------|----------------------|----------------------|
E|----------------------|----------------------|----------------------|----------------------|

E|----------------------|----------------------|----------------------|----------------------|
B|--11--------11----\9--|--11----\6--------6---|--4----6br------------|----------------------|
G|----------------------|----------------------|----------------------|---8--6--6------------|
D|----------------------|----------------------|----------------------|----------------------|
A|----------------------|----------------------|----------------------|----------------------|
E|----------------------|----------------------|----------------------|----------------------|

E|----------------------|----------------------|----------------------|----------------------|
B|----------------------|----------------------|----------------------|------------14--------|
G|----------------------|--------/10--8--------|-------------8--------|---/8---10--------13--|
D|----------------------|--6--8----------10----|---10---11-------8----|----------------------|
A|----------------------|----------------------|----------------------|----------------------|
E|----------------------|----------------------|----------------------|----------------------|

E|----------------------|----------------------|----------------------|----------------------|
B|----------------------|-------14--16--14-----|--16br-------16-------|--14--------13--------|
G|-13-/15---15--/17--18-|----------------------|----------------------|----------------------|
D|----------------------|----------------------|----------------------|----------------------|
A|----------------------|----------------------|----------------------|----------------------|
E|----------------------|----------------------|----------------------|----------------------|

E|----------------------|
B|--11------------------|
G|----------------------|
D|----------------------|
A|----------------------|
E|----------------------|
                        F
Tell me how it feels like
F#             D#m     C#
Tell me how it feels like

F

F#             D#m                 C#
Tell me how it feels like take off your disguise
               F
Show me the light
F#              D#m
Bring me down into your level
     F
Make me a rebel, the stealer of your
A#m                   F#
Heart (Hold me please never leave
  C#              F
I need your daily poisoning
     A#m                 F#
Your words so deep cut into me
    C#                 F
Whispers so loud)  The stealer of your

E|------------------------|
B|--------6-------6-------|
G|-----6-----8-------6----|
D|--8---------------------|
A|--8---------------------|
E|--6---------------------|

  heart
reproducciones 7
Acordes para:
    Colaboración y revision:
    • Rodrigo Cascaes

    0 comentarios

    mostrar más comentarios

    ¿Conseguiste tocar?

    0 tocaron 0 aún no

    ¡Graba un vídeo tocando Show Me The Light y envianoslo!

    00:00 / 00:00
    outros vídeos desta música
    repetir qualidade Automático
    Outros vídeos desta música
    00:00 / 00:00
    Automático
    OK