Cifra Club

Survive

The Warning

Tablatura: Principal (guitarra)
Tom: D
[Intro]

Bm                       G
Don't come to me saying that you cared
Em                      A        F#/Bb
That I was the one who was never there
Bm                     G
Don't come with your lies in the air
Em                       A     F#/Bb
You keep blaming me and it ain't fair
Bm                       G
Don't come telling me that you worried
Em                    A     F#/Bb
That I'll be hurting if you're gone
Bm                      G
Don't come to me saying that you're sorry
Em
Your words mean nothing, 
A                  F#/Bb
your words mean nothing at all

Bm       G        Em     F#
oh-oh...oh-oh...oh-oh...oh-oh  (2x)
 
[Verso]

Bm              G               Em       A        F#/Bb
You said that we were gonna be together forever and ever
Bm
And now I'm lying on the floor
G                               Em                A       F#/Bb
With my broken heart and all oh Oh-oh...oh-oh....oh-oh...oh-oh
Bm              G                  Em
You said that I was the one in your dreams
             A        F#/Bb
That your heart belonged to me
Bm
Now I believe I must move on
G                             Em        A      F#/Bb
Because I think you won't come home, come home


[Bridge]
Bm         D             A
ohhhhh I know I will survive
F#
Even if you're not by my side
Bm               D         A   F#
Think this time I'll say goodbye
 
[Chorus]

Riff 1

E|---------------------------------------------------------------------------------|
B|--7--7--7--10--7--7--7-----------------------------------------------------------|
G|------------------------7--7--7--9--9--7--7-----------7--------------------------|
D|---------------------------------------------9--9--9-----9--9--9--7--7--8--8--8--|
A|---------------------------------------------------------------------------------|
E|---------------------------------------------------------------------------------|

Bm                       G
Don't come to me saying that you cared
Em                      A        F#/Bb
That I was the one who was never there
Bm                     G
Don't come with your lies in the air
Em                       A     F#/Bb
You keep blaming me and it ain't fair
Bm                       G
Don't come telling me that you worried
Em                    A     F#/Bb
That I'll be hurting if you're gone
Bm                      G
Don't come to me saying that you're sorry
Em
Your words mean nothing, 
A                  F#/Bb
your words mean nothing at all

Bm        G        Em     F#
oh-oh...oh-oh...oh-oh...oh-oh  (2x)

[Verso]

Bm              G                    Em
You said that we were perfect for each other
     A           F#/Bb
That I was like no other
Bm
I never knew this was a game
G                         Em                A           F#/Bb
That when I lose I'd be replaced oh-oh...oh-oh...oh-oh....oh-oh
Bm               G                      Em
You said that you were gonna keep your promise
      A          F#/Bb
Of loving me always
Bm
But now I know that it ain't true
G                       Em       A   F#/Bb
And I'm so glad that I let go, let go

[Bridge]
Bm         D             A
ohhhhh I know I will survive
F#
Even if you're not by my side
Bm               D         A   F#
Think this time I'll say goodbye

[Chorus]

Riff 1

E|---------------------------------------------------------------------------------|
B|--7--7--7--10--7--7--7-----------------------------------------------------------|
G|------------------------7--7--7--9--9--7--7-----------7--------------------------|
D|---------------------------------------------9--9--9-----9--9--9--7--7--8--8--8--|
A|---------------------------------------------------------------------------------|
E|---------------------------------------------------------------------------------|

Bm                       G
Don't come to me saying that you cared
Em                      A        F#/Bb
That I was the one who was never there
Bm                     G
Don't come with your lies in the air
Em                       A     F#/Bb
You keep blaming me and it ain't fair
Bm                       G
Don't come telling me that you worried
Em                    A     F#/Bb
That I'll be hurting if you're gone
Bm                      G
Don't come to me saying that you're sorry
Em
Your words mean nothing, 
A                  F#/Bb     Bm
your words mean nothing at all

Riff 2

E|--------------------------------------|
B|--------------------------------------|
G|--------------------------------------|
D|-----------9--------------9-----------|
A|--------------------------------------|
E|--7--7--7-----7--7--7--7-----7--5--6--|

Riff 3

E|--------------------------------------|--------------------------------------|
B|--------------------------------------|--------------------------------------|
G|--------------------------------------|--------------------------------------|
D|-----------5--------------5-----------|-----------7--------------7-----------|
A|--------------------------------------|--------------------------------------|
E|--3--3--3-----3--3--3--3-----3--3--4--|--5--5--5-----5--5--5--5-----5--5--6--|
reproducciones 143
Acordes para:
    Composição: The Warning Colaboración y revision:
    • Marcus Freitas

    0 comentarios

    mostrar más comentarios

    ¿Conseguiste tocar?

    1 tocaron 0 aún no

    ¡Graba un vídeo tocando Survive y envianoslo!

    00:00 / 00:00
    outros vídeos desta música
    repetir qualidade Automático
    Outros vídeos desta música
    00:00 / 00:00
    Automático
    OK