Cifra Club

Unmendable

The Warning

Tablatura: Principal (guitarra)
Tom: E
Intro 2x: C#sus2  A  Esus2  B  

Verso:

E|--------------------------------------------------------------------------------------|
B|--------------------------------------------------------------------------------------|
G|--------------------------------------------------------------------------------------|
D|--------------------------------------------------------------------------------------|
A|--------------------------------------------------------------------------------------|
E|--5p0--0--5p0--0--5p0--5p0--0--5p0--0--5h7--4p0--0--4p0--0--4p0--4p0--0--4p0--0--4p0--|

You all act so innocent 
you trick our minds to give in into
your life of sin

E|--------------------------------------------------------------------------------------|
B|--------------------------------------------------------------------------------------|
G|--------------------------------------------------------------------------------------|
D|--------------------------------------------------------------------------------------|
A|--------------------------------------------------------------------------------------|
E|--5p0--0--5p0--0--5p0--5p0--0--5p0--0--5h7--4p0--0--4p0--0--4p0--4p0--0--4p0--0--4p0--|

You all play your little games
You try to act and to pretend but
we know you've killed lovers 
and betrayed friends

E|--------------------------------------------------------------------------------------|
B|--------------------------------------------------------------------------------------|
G|--------------------------------------------------------------------------------------|
D|--------------------------------------------------------------------------------------|
A|--------------------------------------------------------------------------------------|
E|--2p0--0--2p0--0--2p0--2p0--0--2p0--0--2h3--4p0--0--4p0--0--4p0--4p0--0--4p0--0--4p0--|

Tears running down our face
All of your words were always staged 
and you were always fake

E|--------------------------------------------------------------------------------------|
B|--------------------------------------------------------------------------------------|
G|--------------------------------------------------------------------------------------|
D|--------------------------------------------------------------------------------------|
A|--------------------------------------------------------------------------------------|
E|--2p0--0--2p0--0--2p0--2p0--0--2p0--0--2h3--4p0--0--4p0--0--4p0--4p0--0--4p0--0--4p0--|

You were never nice to us 
your lies were never good enough
like fools we trusted you

Ponte:

C#5           A5
Oh oh oh oh oh
                   E5            G#5
You left and you killed what we had
C#5           A5
Oh oh oh oh oh 
                              E5              G#5
Don't come close cause you stabbed us in our backs

Refrão:

                  C#5
When you're all alone 
                A5
with no one to hold
E5                         B5
Don't come near 'cause we won't be here
C#5
You left us lost 
         A5
when we gave you our trust
E5                   G#5
You left 'cause you chose them over us

C#sus2  A  Esus2  B

Verso:

E|--------------------------------------------------------------------------------------|
B|--------------------------------------------------------------------------------------|
G|--------------------------------------------------------------------------------------|
D|--------------------------------------------------------------------------------------|
A|--------------------------------------------------------------------------------------|
E|--5p0--0--5p0--0--5p0--5p0--0--5p0--0--5h7--4p0--0--4p0--0--4p0--4p0--0--4p0--0--4p0--|

You just waste our time
we make amends and then we fight
silently you start to lie

E|--------------------------------------------------------------------------------------|
B|--------------------------------------------------------------------------------------|
G|--------------------------------------------------------------------------------------|
D|--------------------------------------------------------------------------------------|
A|--------------------------------------------------------------------------------------|
E|--5p0--0--5p0--0--5p0--5p0--0--5p0--0--5h7--4p0--0--4p0--0--4p0--4p0--0--4p0--0--4p0--|

This has become a war 
and you won't stop until we fall 
until we're all gone

Ponte:

C#5           A5
Oh oh oh oh oh
                   E5            G#5
You left and you killed what we had
C#5           A5
Oh oh oh oh oh 
                              E5              G#5
Don't come close cause you stabbed us in our backs

Refrão:

                  C#5
When you're all alone 
                A5
with no one to hold
E5                         B5
Don't come near 'cause we won't be here
C#5
You left us lost 
         A5
when we gave you our trust
E5                   G#5
You left 'cause you chose them over us

Verso:

C#5                 A5
It's unmendable for better or for worse 
        E5             G#5
you'll get what you deserve 

Refrão:

                  C#5
When you're all alone 
                A5
with no one to hold
E5                         B5
Don't come near 'cause we won't be here
C#5
You left us lost 
         A5
when we gave you our trust
E5                   G#5
You left 'cause you chose them over us

Final:

C#5                 A5
It's unmendable for better or for worse 
        E5             G#5
you'll get what you deserve 

E|-------------------------------------------------------------|
B|-------------------------------------------------------------|
G|--8--8----8--8----8--8-----------------8--8----8--8----8--8--|
D|--6--6----6--6----6--6-----------------6--6----6--6----6--6--|
A|--4--4----4--4----4--4--7--7--4--4--2--4--4----4--4----4--4--|
E|------------------------5--5--2--2--0------------------------|

E|--------------------------------------------------|
B|--------------------------------------------------|
G|--------------------------------------------------|
D|-----------------------------------------------6--|
A|--7--7--4--4--2--7--7--4--4--2--7--7--4--4--2--4--|
E|--5--5--2--2--0--5--5--2--2--0--5--5--2--2--0-----|
reproducciones 35
Acordes para:
    Colaboración y revision:
    • Marcus Freitas

    0 comentarios

    mostrar más comentarios

    ¿Conseguiste tocar?

    0 tocaron 0 aún no

    ¡Graba un vídeo tocando Unmendable y envianoslo!

    00:00 / 00:00
    outros vídeos desta música
    repetir qualidade Automático
    Outros vídeos desta música
    00:00 / 00:00
    Automático
    OK