Cifra Club

Wildfire

The Warning

Tablatura: Principal (guitarra)
Tom: D
        Bm
We´re a wildfire
      A
they try to shut us down 
           G
we´re the high flyers 
      F#
they try to pull us back on the ground 
           Bm
we are the restless
              A
the ones who can't sleep at night 
   G
I say it´s time for a change
   F#
I say it's time we fight

E|-----------------------|-----------------------|
B|-----------------------|-----------------------|
G|-----------------------|-----------------------|
D|--4--4--2--2-----------|--4--4--2--2-----------|
A|--2--2--0--0--5--4--4--|--2--2--0--0--5--4--4--|
E|--------------3--2--2--|--------------3--2--2--|

E|-----------------------|-----------------------|
B|-----------------------|-----------------------|
G|-----------------------|-----------------------|
D|--4--4--2--2-----------|--4--4--2--2-----------|
A|--2--2--0--0--5--4--4--|--2--2--0--0--5--4--4--|
E|--------------3--2--2--|--------------3--2--2--|

E|-----------------------|-----------------------|
B|-----------------------|-----------------------|
G|-----------------------|-----------------------|
D|--4--4--2--2-----------|--4--4--2--2-----------|
A|--2--2--0--0--5--4--4--|--2--2--0--0--5--4--4--|
E|--------------3--2--2--|--------------3--2--2--|

Verso:
      B5
Will you fight with me?
   A5
until the very end
       G5
cause now that we´re reprimed
      F#5
they don't respect our rights
     B5
we stepped out of time
    A5
we drew outside the line
    G5
they didn't like us
    F#5
so they left us here to die

Pré-Refrão:

G5     A5        B5      F#5
oh oh ohhh oh oh ohohh oh

Refrão:
        B5
We´re a wildfire
      A5
they try to shut us down 
           G5
we´re the high flyers 
      F#5
they try to pull us back on the ground 
           B5
we are the restless
              A5
the ones who can't sleep at night 
   G5
I say it´s time for a change
   F#5
I say it's time we fight

E|-----------------------|-----------------------|
B|-----------------------|-----------------------|
G|-----------------------|-----------------------|
D|--4--4--2--2-----------|--4--4--2--2-----------|
A|--2--2--0--0--5--4--4--|--2--2--0--0--5--4--4--|
E|--------------3--2--2--|--------------3--2--2--|

E|-----------------------|-----------------------|
B|-----------------------|-----------------------|
G|-----------------------|-----------------------|
D|--4--4--2--2-----------|--4--4--2--2-----------|
A|--2--2--0--0--5--4--4--|--2--2--0--0--5--4--4--|
E|--------------3--2--2--|--------------3--2--2--|

Verso:
    B5                  A5
Will you join this war to perish or to fall
   G5
will you stand with me? 
  F#5
till we make history 
   B5
Will you risk the climb?
   A5
to earn your wings and fly 
  G5
soar trough the sky 
  F#5
and be free at last

Pré-Refrão:

G5     A5        B5      F#5
oh oh ohhh oh oh ohohh oh

Refrão:
        B5
We´re a wildfire
      A5
they try to shut us down 
           G5
we´re the high flyers 
      F#5
they try to pull us back on the ground 
           B5
we are the restless
              A5
the ones who can't sleep at night 
   G5
I say it´s time for a change
   F#5
I say it's time we fight

G              A
It is in our grasp
           G
it is so close
             F#5
but at the same time is far
G
We will fly free
 A
There´ll be no peace 
G
until things 
F#5
are set right

     Bm           A
More wildfires until you stand down
     G                      F#5
The high flyers will not be pulled back on the ground 
         B5
We´ll be restless
        A5
until things are set right
   G5
we say it's time for a change
   F#5
and we will win this fight!

Final:
E|-----------------------|-----------------------|
B|-----------------------|-----------------------|
G|-----------------------|-----------------------|
D|--4--4--2--2-----------|--4--4--2--2-----------|
A|--2--2--0--0--5--4--4--|--2--2--0--0--5--4--4--|
E|--------------3--2--2--|--------------3--2--2--|

E|-----------------------|-----------------------|
B|-----------------------|-----------------------|
G|-----------------------|-----------------------|
D|--4--4--2--2-----------|--4--4--2--2-----------|
A|--2--2--0--0--5--4--4--|--2--2--0--0--5--4--4--|
E|--------------3--2--2--|--------------3--2--2--|
reproducciones 33
Acordes para:
    Composição: Daniela Villarreal, Paulina Villarreal and Alejandra Villarreal Colaboración y revision:
    • Marcus Freitas

    0 comentarios

    mostrar más comentarios

    ¿Conseguiste tocar?

    0 tocaron 0 aún no

    ¡Graba un vídeo tocando Wildfire y envianoslo!

    00:00 / 00:00
    outros vídeos desta música
    repetir qualidade Automático
    Outros vídeos desta música
    00:00 / 00:00
    Automático
    OK