Cifra Club

Blinding Lights

The Weeknd

Cifrado: Principal (guitarra y guitarra eléctrica)
tono: Eb
[Intro]

   Fm             Cm            Eb       Bb
E|-1-1---1-3------1-1---1-3-----6-3-----6-3---------------|
B|-----4-----1-4------4-----1-4-----6-4-----6-4-6---------|
G|--------------------------------------------------------|
D|--------------------------------------------------------|
A|--------------------------------------------------------|
E|--------------------------------------------------------|

[Primeira Parte]

                 Fm
I've been tryna call
                Cm
I've been on my own for long enough
                Eb
Maybe you can show me 
                 Bb
How to love, maybe
                        Fm
I'm going through withdrawals
                Cm
You don't even have to do too much
                Eb    
You can turn me on 
                      Bb
With just a touch, baby

[Pré-Refrão]

I look around and
Fm
  Sin city's cold and empty (oh)
Cm
  No one's around to judge me (oh)
Eb
  I can't see clearly when you're gone

[Refrão]

        Fm
I said, ooh
      Cm
I'm blinded by the lights
    Eb
No, I can't sleep until 
             Bb
I feel your touch
        Fm
I said, ooh
      Cm
I'm drowning in the night
      Eb
Oh, when I'm like this 
                   Bb
You're the one I trust

Hey, hey, hey

( Fm  Cm  Eb  Bb )

   Fm             Cm            Eb       Bb
E|-1-1---1-3------1-1---1-3-----6-3-----6-3---------------|
B|-----4-----1-4------4-----1-4-----6-4-----6-4-6---------|
G|--------------------------------------------------------|
D|--------------------------------------------------------|
A|--------------------------------------------------------|
E|--------------------------------------------------------|

[Segunda Parte]

                    Fm
I'm running out of time

'Cause I can see the 
 Cm
Sun light up the sky
              Eb          
So I hit the road 
                 Bb
In overdrive, baby, oh

Fm
  Sin city's cold and empty (oh)
Cm
  No one's around to judge me (oh)
Eb
  I can't see clearly when you're gone

[Refrão]

        Fm
I said, ooh
      Cm
I'm blinded by the lights
    Eb
No, I can't sleep until 
             Bb
I feel your touch
        Fm
I said, ooh
      Cm
I'm drowning in the night
      Eb
Oh, when I'm like this 
                   Bb
You're the one I trust

[Terceira Parte]

                  Fm
I'm just calling back to let you know
             Cm
I can never say it on the phone 
      Eb                    Bb
Will never let you go this time (ooh)

[Refrão]

        Fm
I said, ooh
      Cm
I'm blinded by the lights
    Eb
No, I can't sleep until 
             
I feel your touch

Hey, hey, hey

Hey, hey, hey

( Fm  Cm  Eb  Bb )
( Fm  Cm  Eb  Bb )

        Fm
I said, ooh
      Cm
I'm blinded by the lights
    Eb
No, I can't sleep until 
             
I feel your touch
Composición de Abel Tesfaye / Ahmad Balshe / Jason Quenneville / Max Martin / Oscar Holter
Colaboración y revisión:
33.649 vistas
  • Simplificar cifrado
    • ½ Tono
    • A
    • Bb
    • B
    • C
    • Db
    • D
    • Eb
    • E
    • F
    • F#
    • G
    • Ab
  • Agregar a la lista

    0 comentarios

    Ver todos los comentarios

    ¿Lograste tocar?

    31 Tocaron 8 Aún no

    ¡Graba un video tocando Blinding Lights y envíanoslo!

    00:00 / 00:00
    Otros videos de esta canción
    Repetir Calidad Automático
    Otros videos de esta canción
    00:00 / 00:00
    Automático
    OK