Cifra Club

Come Join The Murder

The White Buffalo

Tablatura: Principal (guitarra)
Tom: F
[Intro] Dm

E|--0h1--1-1-1-1p0--0h1-1-1-1--1/3--------|
B|--3----3-3-3-3----3---3-3-3--3/5--------|
G|--2----2-2-2-2----2---2-2-2--2/4--------|
D|--0----0-0-0-0----0---0-0-0--0----------|
A|----------------------------------------|
E|----------------------------------------|

Dm                                    Bb
There's a blackbird perched outside my window
              F
I hear him calling
            Am
I hear him sing
Dm                                  Bb
He burns me with his eyes of gold to embers
                  F
He sees all my sins
             C
He reads my soul

Gm      Dm         Am          Bb
One day that bird, he spoke to me
Gm        Dm
Like Martin Luther
Am       Bb    C
Like Pericles

F             C
  Come join the murder
F             C
  Come fly with black
F             C
  We'll give you freedom
Bb            C
  From the human trap
F             C
  Come join the murder
F             C
  Soar on my wings
F             C
  You'll touch the hand of God
Bb            C
  And he'll make you king
Bb            C
  And he'll make you king

Dm                        Bb
On a blanket made of woven shadows
              F
Flew up to heaven
             Am
On a raven's glide
Dm                        Bb
His angels they turn my wings to wax now
F                  C
I fell like Judas, grace denied

Pré-Refrão:
Gm      Dm     Am       Bb
On that day he lied to me
Gm          Dm
Like Martin Luther
Am        Bb   C
Like Pericles

F             C
  Come join the murder
F             C
  Come fly with black
F             C
  We'll give you freedom
Bb            C
  From the human trap
F             C
  Come join the murder
F             C
  Soar on my wings
F             C
  You'll touch the hand of God
Bb            C
  And he'll make you king
Bb            C
  And he'll make you king

Dm                            Bb
I walk among the children of my fathers
                  F              Am
The broken wings, betrayal's cost
Dm                             Bb
They call to me but never touch my heart, now
          F
I am too far
         C
I'm too lost

Gm        Dm          Am            Bb
All I can hear is what he spoke to me
Gm        Dm
Like Martin Luther
Am       Bb    C
Like Pericles

F             C
  Come join the murder
F             C
  Come fly with black
F             C
  We'll give you freedom
Bb            C
  From the human trap
F             C
  Come join the murder
F             C
  Soar on my wings
F             C
  You'll touch the hand of God
Bb            C
  And he'll make you king
Bb            C
  And he'll make you king

[Solo]

E|-----------------------------------------------------------------------------------------|
B|-----------------------------------------------------------------------------------------|
G|-----------------------------------------------------------------------------------------|
D|--------------------7b9-7b9-7b9-7b9------------------------------------------------------|
A|-------------8--10-------------------10---8----------------------------------------------|
E|-----8---10-----------------------------------10---8---10--------------------------------|

E|---------------------------------8-------------------------------------------------------|
B|-------------------------8---10-------10---8---------------------------------------------|
G|-------------7---10~--------------------------10--9--9h10-9h10p9--10--9--7---------------|
D|-----7---10------------------------------------------------------------------------------|
A|-----------------------------------------------------------------------------------------|
E|-----------------------------------------------------------------------------------------|

E|--------------------------------------8---10r-10r----------------------------------------|
B|---------------------8--8--10--10--------------------------------------------------------|
G|-----7--9--9--10--10---------------------------------------------------------------------|
D|-----------------------------------------------------------------------------------------|
A|-----------------------------------------------------------------------------------------|
E|-----------------------------------------------------------------------------------------|

E|-----10----8-----------------------------------------------------------------------------|
B|---------------10p8----------------------------------------------------------------------|
G|----------------------7----------------10------------------------------------------------|
D|-------------------------10r--10p7h10--------10---7r--7~-7--------------7----------------|
A|-------------------------------------------------------10-10~-10r---10---10--8-----------|
E|-------------------------------------------------------------------------------10--8--10r|

Dm                        Bb
So now I curse that raven's fire
                   F               Am
You made me hate, you made me burn
Dm                        Bb
He laughed aloud as he flew from Eden
                 F               C
You always knew, you never learn

Gm       Dm        Am        Bb
The crow no longer sings to me
Gm        Dm
Like Martin Luther
Am        Bb  C
Or Pericles

F             C
  Come join the murder
F             C
  Come fly with black
F             C
  We'll give you freedom
Bb            C
  From the human trap
F             C
  Come join the murder
F             C
  Soar on my wings
F             C
  You'll touch the hand of God
Bb            C
  And he'll make you king

F             C
  Come join the murder
F             C
  Come fly with black
F             C
  We'll give you freedom
Bb            C
  From the human trap
F             C
  Come join the murder
F             C
  Soar on my wings
F             C
  You'll touch the hand of God
Bb            C
  And he'll make you king
Bb            C
  And he'll make you king
reproducciones 1.672
Acordes para:

    0 comentarios

    mostrar más comentarios

    ¿Conseguiste tocar?

    20 tocaron 1 aún no

    ¡Graba un vídeo tocando Come Join The Murder y envianoslo!

    00:00 / 00:00
    outros vídeos desta música
    repetir qualidade Automático
    Outros vídeos desta música
    00:00 / 00:00
    Automático
    OK