Cifra Club

Sweet Hereafter

The White Buffalo

Tablatura: Principal (guitarra)
Tom: G
Introdução:
E|---------------------------------------------------------------------------|
B|---------------------------------------------------------------------------|
G|---------------------------------------------------------------------------|
D|---------------------------------------------------------------------------|
A|---0h3---3---3---3---0h3---3---3---3---0h3---3---3---3---0h3---3---3---3---|
E|-0h1---1---1---0---0h1---1---1---0---0h1---1---1---0---0h1---1---1---0-----|

Verso:
E|---------------------------------------------------------------------------|
B|---------------------------------------------------------------------------|
G|---------------------------------------------------------------------------|
D|-----------------------0h3---3-----------------------5---5---5---5---3---3-|
A|---0h3---3---3---3---0h1---1-----0h3---3---3---0---3---3---3---3---1---1---|
E|-0h1---1---1---0---------------0h1---1---1---0-----------------------------|

E|---------------------------------------------------------------------------|
B|---------------------------------------------------------------------------|
G|---------------------------------------------------------------------------|
D|---------------------------------------------------------------------------|
A|---0h3---3---3---3---0h3---3---3---3---------------------------------------|
E|-0h1---1---1---0---0h1---1---1---0-----------------------------------------|

E|---------------------------------------------------------------------------|
B|---------------------------------------------------------------------------|
G|---------------------------------------------------------------------------|
D|-----------------------0h3---3-----------------------5---5---5---5---3---3-|
A|---0h3---3---3---3---0h1---1-----0h3---3---3---0---3---3---3---3---1---1---|
E|-0h1---1---1---0---------------0h1---1---1---0-----------------------------|


E|---------------------------------------------------------------------------|
B|---------------------------------------------------------------------------|
G|---------------------------------------------------------------------------|
D|-----------------------5---5---5---5---3---3---3---3-----------------------|
A|---0h3---3---3---0---3---3---3---3---1---1---1---1-------------------------|
E|-0h1---1---1---0-----------------------------------------------------------|

E|---------------------------------------------------------------------------|
B|---------------------------------------------------------------------------|
G|---------------------------------------------------------------------------|
D|---------------------------------------------------------------------------|
A|---0h3---3---3---3---0h3---3---3---3---------------------------------------|
E|-0h1---1---1---0---0h1---1---1---0-----------------------------------------|

Refrão:
E|---------------------------------------------------------------------------|
B|---------------------------------------------------------------------------|
G|---------------------------------------------------------------------------|
D|---7---7---7---7---5---5---5---5---3---3---3---3---3---3---0h3---3---------|
A|-5---5---5---5---3---3---3---3---1---0---1---0---1---0---0h1---0-----------|
E|---------------------------------------------------------------------------|

E|---------------------------------------------------------------------------|
B|---------------------------------------------------------------------------|
G|---------------------------------------------------------------------------|
D|---------------------------------------------------------------------------|
A|---0h3---3---3---3---0h3---3---3---3---------------------------------------|
E|-0h1---1---1---0---0h1---1---1---0-----------------------------------------|
reproducciones 7
Acordes para:
    Composição: Jake Smith Colaboración y revision:
    • Helmut Araujo

    0 comentarios

    mostrar más comentarios

    ¿Conseguiste tocar?

    1 tocaron 0 aún no

    ¡Graba un vídeo tocando Sweet Hereafter y envianoslo!

    00:00 / 00:00
    outros vídeos desta música
    repetir qualidade Automático
    Outros vídeos desta música
    00:00 / 00:00
    Automático
    OK