Cifra Club

Seven Nation Army

The White Stripes

Tablatura: Principal
reproducciones 40.183
Tono: G
Riff 1:

E|-------------------------------------------------|
B|-------------------------------------------------|
G|-------------------------------------------------|
D|-------------------------------------------------|
A|----7--7--10--7--5--3-2--------------------------|
E|-------------------------------------------------|

Riff 2:

E|---------------------------------------------|
B|---------------------------------------------|
G|---------------------------------------------|
D|---------------------------------------------|
A|----5-5-5-5-5-5-5-5-7-7-7-7-7-7-7-7----------|
E|----3-3-3-3-3-3-3-3-5-5-5-5-5-5-5-5----------|

Riff 3:

E|-----------------------------------------------------------|
B|-----------------------------------------------------------|
G|---9--9-12-9-7-5-4~----9--9-12-9-7-5\7/5-4-----------------|
D|---9--9-12-9-7-5-4~----9--9-12-9-7-5\7/5-4-----------------|
A|---7--7-10-7-5-3-2~----7--7-10-7-5-3\5/3-2-----------------|
E|-----------------------------------------------------------|

Solo:


E|--12--12/14--12--12--15b--14------12--12--15--17--15--15--15/17--15--14------------|
B|-----------------------------------------------------------------------------------|
G|-----------------------------------------------------------------------------------|
D|-----------------------------------------------------------------------------------|
A|-----------------------------------------------------------------------------------|
E|-----------------------------------------------------------------------------------|

E|--12--12/14--12--12--15b--15-|--12--12/14--12--12/14--12---------33333333-55555555-|
B|------------------------------|---------------------------13--12-------------------|
G|------------------------------|----------------------------------------------------|
D|------------------------------|----------------------------------------------------|
A|------------------------------|----------------------------------------------------|
E|------------------------------|----------------------------------------------------|

E|--------------|
B|--------------|
G|------9~~~~---|
D|------9~~~~---|
A|--0---7~~~~---|
E|--------------|

(Riff 1 - 4x)

          (Riff 1)
I'm gonna fight em' off.
               (Riff 1)
A seven nation army couldn't hold me back.
              (Riff 1)
They're gonna rip it off.
             (Riff 1)
Takin' their time right behind my back.
        (Riff 1)
And i'm talkin to myself at night, because i cant forget.
(Riff 1)                                          (Riff 1)
Back and forth through my mind behind a cigarette
      (Riff 2)
And a message comin' from my eyes, says leave it alone.

(Riff 3 - 4x)

(Riff 2 - 1x)

(Riff 1 - 4x)

           (Riff 1)
Dont wanna hear about it.
              (Riff 1)
Every single ones got a story to tell.
         (Riff 1)
Everyone knows about it.
                  (Riff 1)
From the queen of england to the hounds of hell.
         (Riff 1)
And if i catch you comin back my way, i'm gonna serve it to you.
     (Riff 1)                                              (Riff 1)
And that ain't what you want to hear, but thats what i'll do.
      (Riff 2)
And a feelin' comin' from my bones, says find a home.

Solo:


E|--12--12/14--12--12--15b--14------12--12--15--17--15--15--15/17--15--14------------|
B|-----------------------------------------------------------------------------------|
G|-----------------------------------------------------------------------------------|
D|-----------------------------------------------------------------------------------|
A|-----------------------------------------------------------------------------------|
E|-----------------------------------------------------------------------------------|

E|--12--12/14--12--12--15b--15-|--12--12/14--12--12/14--12---------33333333-55555555-|
B|------------------------------|---------------------------13--12-------------------|
G|------------------------------|----------------------------------------------------|
D|------------------------------|----------------------------------------------------|
A|------------------------------|----------------------------------------------------|
E|------------------------------|----------------------------------------------------|

(Riff 1 - 4x)

            (Riff 1)
Im goin' to witchitaw.
              (Riff 1)
Far from this opera forever more.
         (Riff 1)
Im gonna work the straw (?).
               (Riff 1)
Make the sweat drip out of every pore.
        (Riff 1)
And i'm bleedin' and i'm bleedin' and im bleedin' right before my lord.
        (Riff 1)                                              (Riff 1)
All the words are gonna bleed from me, and i will sing no more.
         (Riff 2)
And the stains comin from my blood, tell me go back home.

E|--------------|
B|--------------|
G|------9~~~~---|
D|------9~~~~---|
A|--0---7~~~~---|
E|--------------|

0 comentarios

    mostrar más comentarios

    ¿Conseguiste tocar?

    198tocaron4aún no

    ¡Graba un vídeo tocando Seven Nation Army y envianoslo!

    00:00 / 00:00
    outros vídeos desta música
    repetirqualidadeautomática
    Outro vídeos desta música
      00:00 / 00:00
      automática
      OK