Cifra Club

I'm Free

The Who

Chords: Principal (acoustic and electric guitars)
tone: D
E|----------------|
B|----------------|
G|----------------|
D|----------2-2-2-|
A|-2-2------0-0-0-|
E|-0-0--3-3-------|

                       (repeat liberally)
E|-----------------|
B|-----------------|
G|-----------4-4-4-|
D|-4-4--2-2--4-4-4-|
A-4-4--0-0--2-2-2-|
E|-2-2-------------|


as the song goes on you can ad lib using the following chords, using down strokes

E|-----------------|
B|-----------------|
G|-----------------|
D|-4---------------|
A|-4---------------|
E|-2---------------|

E|----------------|
B|----------------|
G|----------------|
D|-2--------------|
A|-0--------------|
E|----------------|

E|----------------|
B|----------------|
G|-4--------------|
D|-4--------------|
A|-2--------------|
E|----------------|

E|---------------|
B|---------------|
G|---------------|
D|---------------|
A|-2-------------|
E|-0-------------|

E|---------------|
B|---------------|
G|---------------|
D|-2-------------|
A|-0-------------|
E|---------------|

00:00 / 00:00
Other videos of this song
Repeat
Other videos of this song
Composed by Pete Townshend
Collaboration and Review:
  • Rafael
289 views
    • ½ Tone
    • A
    • Bb
    • B
    • C
    • Db
    • D
    • Eb
    • E
    • F
    • F#
    • G
    • Ab
  • Add to list
    00:00 / 00:00
    OK