Cifra Club

All my only dreams

The Wonders

Tablatura: Principal (guitarra)
Tom: D
(intro)
   D         Bm        G                  A            D         Bm      Em       A  A5+
E|-2--2-2-2--2-0-------------3-----5--7-5-------2--2-2-2--2-0------0-0-----0--1---
B|-3---------3---3---------3---3---5------5-----3---------3---3----0----0--3--3---
G|-2---------4-----4-----4---------6--------6---2---------4-----4--0-------3--3---
D|-0---------4---------5-----------7------------0---------4--------2-------3--4---
A|-------------------------------------------------------------------------0--0---
E|--------------------------------------------------------------------------------

(solo)
E|-2-2-2-2--2-0------------------------------------------------------------|
B|-3--------3---3--3-3-3-5-2-----------------------------------------------|
G|-2--------4----------------4-2------------------------------------4-5-6--|
D|-0--------4----------------------4-4-4-4-2------------------4-5-7--------|
A|-------------------------------------------5----5-5-5-4-5-7--------------|
E|-------------------------------------------------------------------------|

(riff 1)
E|-2-3-2-0-2-0---------
B|-------------3-------
G|---------------2-3---
D|---------------------
A|---------------------
E|---------------------

D     Bm           G               A
Every night I pray, I'll have you here someday
D               Bm                Em        A       A5+
I'll count the stars tonight, and hope with all my might
F#m         Bm           G                 E
And when I close my eyes, you'll be right by my side
D          D5+            D6                  D7                   G
If I could only have one wish, you' d be the girl whose lips I' d kiss
       A      D      Bb A
All my only dreams

(solo)

F#m         Bm            G
And when I close my eyes
                E           D
You'll be right by my side
           D5+            D6
If I could have just one request
            D7         G
Stay with me girl I confess
       A    D
All my only dreams

Gm6                 D
Any waking hour it seems (riff 1)
E7                  Em  A    A5+ D
I only have you in my dreams

          Bm              G
So every night I'll pray
               A            D
I'll have you here one day
                Bm            Em
I'll count the stars tonight
              A   A5+           F#m
And hope with all my might

            Bm            G
And when I close my eyes
                E           D
You'll be right by my side
           D5+            D6
If I could have just one request
            D7          G
Stay with me girl I confess
       A    D    Bm   G   Gm   D
All my only dreams
reproducciones 273
Acordes para:
    Composição: Rick Elias Colaboración y revision:
    • Gustavo Moreira
    • aline medeiros

    0 comentarios

    mostrar más comentarios

    ¿Conseguiste tocar?

    1 tocaron 0 aún no

    ¡Graba un vídeo tocando All my only dreams y envianoslo!

    00:00 / 00:00
    outros vídeos desta música
    repetir qualidade Automático
    Outros vídeos desta música
    00:00 / 00:00
    Automático
    OK