Cifra Club

I Need You (That Thing You Do)

The Wonders

Tablatura: Principal (guitarra)
Tom: C
Intro:          ...thing you do  ... it very    Solo:
E|----------------|---3---3------|--------------|------------------------------------------
B|-6-8-5-6---5----|--------------|--------------|------------------------------------------
G|---------7---5--|-5---4--------|--------------|------------------------------------------
D|----------------|--------------|-2-3-2--------|---2-3-2-----------------2-3-2------------
A|----------------|--------------|-------5-3-5--|-3-------5-3-5-------3-3-------5-3-5-3-2--
E|----------------|--------------|--------------|---------------5-3------------------------

E|------------------------
B|------------------------
G|------------------------
D|-------------2-3-5-3----
A|-------2-3-5------------
E|-5-3-5------------------

Intro: C

C                                                G
I never thought my life would end up quite this way 
                C                                 G
sometimes it's hard to figure out what I should say 
          Fm                       C
I tried alone to mend this broken heart 
Am     Dm G               C
I need you that thing you do 
[Intro]
C                                          G
I never thought I'd find it very hard to smile 
                 C                              G
you know that other girls have never been my style 
                Fm                               C
well there's a feeling that I get when I'm with you 
Am     Dm  G              C
I need you that thing you do 
[Intro]
         G#                Eb            F
I could search around the world only to find 
          G#              Eb                F
the only thing I need is you right by my side
[Solo: C-G  C-G ]
 
           Fm                              C
there's a feeling that I get when I'm with you 
Am  Dm  G              C
oh     that thing you do 
         G#                Eb            F
I could search around the world only to find 
          G#              Eb                F
the only thing I need is you right by my side 
C                                                G
I never thought my life would end up quite this way 
                 C                               G
sometimes it's hard to figure out what I should say
         Fm                        C
I tried alone to mend this broken heart 
Am Dm      G             Am   D
I need you that thing you do 
      F     G            Bb   F   C
need you that thing you do
reproducciones 164
Acordes para:
    Composição: Rick Elias Colaboración y revision:
    • aline medeiros

    0 comentarios

    mostrar más comentarios

    ¿Conseguiste tocar?

    0 tocaron 0 aún no

    ¡Graba un vídeo tocando I Need You (That Thing You Do) y envianoslo!

    00:00 / 00:00
    outros vídeos desta música
    repetir qualidade Automático
    Outros vídeos desta música
    00:00 / 00:00
    Automático
    OK