Cifra Club

Little Wild One

The Wonders

Tablatura: Principal (guitarra)
Tom: E
E      A    E   (E4 E)
Little wild one
          C#m  F#   B   (B4 B)
My little wi---ld  one
     A             Am
Oh I love, my girlfriend
         E             C#
But when I need a wild time
       F#m                 B        E   (E4 E)     
Little wild one, I'll come back to you

A  
All the girls in school
     B                       E   (E4 E)
Were never quite as cool as you
A
They were all tease and talk
     B                            E   (E4 E)
and you were all please and let's do

C#m                   F#
With them, I feel like I'm wasting my time 
     A                         B
When you make me feel like I'm losing my mind

E      A    E   (E4 E)
Little wild one
          C#m  F#   B   (B4 B)
My little wi---ld  one
     A             Am
Oh I love, my girlfriend
         E             C#
But when I need a wild time
       F#m                 B        E   (E4 E)     
Little wild one, I'll come back to you

[Solo: A  B  E  (E4 E) - Twice]
                    A                B                E        E4
E|----------------|----------------|----------------|-----------------|
B|----------------|----------------|----------------|0-------0--------|
G|----------------|--1-------------|--1-------------|-----------2--1-2|
D|------------2---|4---4-2-------2-|4---4-2---------|-----------------|
A|--------4-------|--------4-------|--------4---2---|-----------------|
E|----------------|----------------|----------------|-----------------|
 
  E                 A                B                E       E4
E|-----------------|----------------|----------------|----------------|
B|-----------------|----------------|----------------|----------------|
G|1----------------|--1-------------|--1-------------|----------------|
D|----------------2|4---4-2-------2-|4---4-2---------|2---------------|
A|--------------4--|--------4-------|--------4---2---|------4---2-----|
E|-----------------|----------------|----------------|-------------4--|
 
  E
E|----------------|
B|----------------|
G|----------------|
D|----------------|
A|----------------|
E|0---------------|

      C#m                   F#
With them, I feel like I'm wasting my time 
     A                         B
When you make me feel like I'm losing my mind
E      A    E   (E4 E)
Little wild one
          C#m  F#   B
My little wi---ld  one
     A             Am
Oh I love, my girlfriend
         E             C#
But when I need a wild time
       F#m              B
Little wild one, I'll come back
       G#m                 C#m
Little wild one, I'll come back
       F#m                 B      B    Am   E7
Little wild one, I'll come back - to - you.....
reproducciones 206
Acordes para:
    Composição: Darryl Gibbs / Steve Silk Hurley Colaboración y revision:
    • Wendell Guimarães
    • Marco Rotta
    • aline medeiros

    0 comentarios

    mostrar más comentarios

    ¿Conseguiste tocar?

    0 tocaron 0 aún no

    ¡Graba un vídeo tocando Little Wild One y envianoslo!

    00:00 / 00:00
    outros vídeos desta música
    repetir qualidade Automático
    Outros vídeos desta música
    00:00 / 00:00
    Automático
    OK