Cifra Club

That Thing You Do Solo

The Wonders

Tablatura: Principal (guitarra)
Tom: A
Tabbed by Devin T.

Here is the Solo from That Thing You Do!:

e--0--0-----0------------------0--0-----0------------------------------|
B--5--5-----5--7b9b7--5--------5--5-----5--7b9b7--5-----5-----5--------|
G--------6---------------6--4--------6---------------6-----6-----------|
D----------------------------------------------------------------------|
A----------------------------------------------------------------------|
E----------------------------------------------------------------------|

e----------------------------------------------------------------------|
B-7b9b7--5--7--5--7-7b9b7--5-----5--7--7b9b7--5-----5-----5-----5------|
G-----------------------------6------------------6-----5-----4---------|
D----------------------------------------------------------------------|
A----------------------------------------------------------------------|
E----------------------------------------------------------------------|
reproducciones 75
Acordes para:

    0 comentarios

    mostrar más comentarios

    ¿Conseguiste tocar?

    0 tocaron 0 aún no

    ¡Graba un vídeo tocando That Thing You Do Solo y envianoslo!

    00:00 / 00:00
    outros vídeos desta música
    repetir qualidade Automático
    Outros vídeos desta música
    00:00 / 00:00
    Automático
    OK