Cifra Club

Blood Red Moon

The XX

Tablatura: Principal (guitarra)
Tom: G
Intro/verso (linha de baixo):
E|-----------------------------------------------------------------|
B|-----------------------------------------------------------------|
G|-----------------------------------------------------------------|
D|-----------------------------------------------------------------|
A|--------------------------2--5--------------------------3--------|
C|-4-4-4-4-4-4-4-4-4-4-4-4------0-0-0-0-0-0-0-0-0-0-0-0------7-----|


Verso: (2x)
E|----------------------------------------------------------------|
B|--/3~------------------------3~-------------------------1-------|
G|-----4~-------------------4-------------------------------(0)---|
D|----------------------------------------------------------------|
A|----------------------------------------------------------------|
C|----------------------------------------------------------------|

Picture me under blood red moon
I'll make your eyes turn yellow
Make your skin turn blue

Refrão: (2x)

E|-------------------------------------------------------------------------|
B|-----------------------------------3-3-3-3-3-3-3-3-3-3-3-3-3-3-3-3-------|
G|-4-4-4-4-4-4-4-4-4-4-4-4-4-4-4-4-----------------------------------------|
D|-------------------------------------------------------------------------|
A|-------------------------------------------------------------------------|
C|-4-4-4-4-4-4-4-4-4-4-4-4-4-4-4-4-0-0-0-0-0-0-0-0-0-0-0-0-2-2-2-2---------|

I know, I know, I know
That it's hard to see
I know, I know, I know

I know, I know, I know
That you're all I see
I know, I know, I know

Solo

E|-------------------------------------------------------------------------|
B|-3p0-0-3p0-0-0-0-3p0-0 3p0-0-0-0-----------------------------------------|
G|-----------------------------------2p0-0-2p0-0-0-0-2p0-0-2p0-0-0-0-------|
D|-------------------------------------------------------------------------|
A|-------------------------------------------------------------------------|
C|-------------------------------------------------------------------------|

E|-------------------------------------------------------------------|
B|-3p0-0-3p0-0-0-0-3p0-0 3p0-0-0-0-----------------------------------|
G|-----------------------------------2p0-0-2p0-0-0-0-2-2-2-0---------|
D|-------------------------------------------------------------------|
A|-------------------------------------------------------------------|
C|-------------------------------------------------------------------|
reproducciones 12
Acordes para:
    Colaboración y revision:
    • Nathália Sobral

    0 comentarios

    mostrar más comentarios

    ¿Conseguiste tocar?

    0 tocaron 0 aún no

    ¡Graba un vídeo tocando Blood Red Moon y envianoslo!

    00:00 / 00:00
    outros vídeos desta música
    repetir qualidade Automático
    Outros vídeos desta música
    00:00 / 00:00
    Automático
    OK