Cifra Club

Hot Like Fire

The XX

Tablatura: Principal (guitarra)
Tom: F
0:16 - 0:45
E|------------------------------|
B|------------------------------|
G|---7-(x8)--8-(x8)-------------|
D|-------------------8-(x16)----|
A|------------------------------|
E|------------------------------|

0:46 - 1:08
E|------------------------------|
B|------------------------------|
G|---7-(x8)--10-(x8)------------|
D|-------------------8-(x16)----|
A|------------------------------|
E|------------------------------|

1:09 - 1:14
E|-------------------------------------------|
B|-------------------------------------------|
G|---7-(x8)--10-(x8)-------------------------|
D|-------------------8--10--8--10--8--10--8--|
A|-------------------------------------------|
E|-------------------------------------------|

1:15 - 1:30
E|----------------------------------------------------------------------|
B|----------------------------------------------------------------------|
G|-7-10--7-8-7----7-10--7-8-7~-----------7----------7--8-7~-------------|
D|-------------------------------8-8/10-----8-8/10----------------------|
A|----------------------------------------------------------------------|
E|----------------------------------------------------------------------|
reproducciones 11
Acordes para:
    Composição: Melissa Elliott / Timothy Mosley Colaboración y revision:
    • Nathália Sobral

    0 comentarios

    mostrar más comentarios

    ¿Conseguiste tocar?

    0 tocaron 0 aún no

    ¡Graba un vídeo tocando Hot Like Fire y envianoslo!

    00:00 / 00:00
    outros vídeos desta música
    repetir qualidade Automático
    Outros vídeos desta música
    00:00 / 00:00
    Automático
    OK