Cifra Club

Replica

The XX

Tablatura: Principal (guitarra)
Tom: G
Riff base que se repete durante toda a música:

E|---------------------------|
B|---------------------------|
G|---------------------------|
D|--------6-8-6--------6-8-6-|
A|--8-6-8--------8-6-8-------|
E|---------------------------|


Intro: D9 C9

E|-----------------------------------|
B|-----------------------------------|
G|-----------------------------------|
D|-------10~--10-8--6-6-8-10~--8-6---|
A|--8-6----------------------------8-|
E|-----------------------------------|


Verso 1:
D
Same right, same wrong
                              C9
Only difference is that I'm the one
D
Second time around
                                 C9
Feels like the song's already been sung


Pré-refrão:
      G
Mirroring situations, accurate imitation
     C9
Do I watch and repeat?
       G
And as if I tried to, I turned out just like you
      C9
Do we watch and repeat?


Refrão:
          D9                    C9
They all say I will become a replica
         D9               C9
Your mistakes were only chemical



Ponte: G C9

E|----------------------|---------------------|-----------------------------|-----------------------------|
B|----------------------|---------------------|-----------------------------|-----------------------------|
G|----------------------|---------------------|-----------------------------|-----------------------------|
D|-8-8-8-8-8-8-8-8-6-6--|-8-8-8-8-8-8-8-8-6-6-|-10-10-10-10-10-10-10-10-6-6-|-10-10-10-10-10-10-10-10-6-6-|
A|----------------------|---------------------|-----------------------------|-----------------------------|
E|----------------------|---------------------|-----------------------------|-----------------------------|


Verso 2:
Em7
25 and you're just like me
     G                      C9
Is it in our nature to be stuck on repeat?
  Em7
Another encore to an aftershow
       G                           C9
Do I chase the night or does the night chase me?


Pré-refrão:
      G
Mirroring situations, accurate imitation
     C9
Do I watch and repeat?
       G
And as if I tried to, I turned out just like you
      C9
Do we watch and repeat?

Refrão:
          D9                    C9
They all say I will become a replica
         D9               C9
Your mistakes were only chemical


Ponte:
       G                           C9
Do I chase the night or does the night chase me?
       G                           C9
Do I chase the night or does the night chase me?


Refrão:
          D9                    C9
They all say I will become a replica
         D9               C9
Your mistakes were only chemical
reproducciones 21
Acordes para:
    Composição: Oliver Sim Colaboración y revision:
    • Erick Lima

    0 comentarios

    mostrar más comentarios

    ¿Conseguiste tocar?

    0 tocaron 0 aún no

    ¡Graba un vídeo tocando Replica y envianoslo!

    00:00 / 00:00
    outros vídeos desta música
    repetir qualidade Automático
    Outros vídeos desta música
    00:00 / 00:00
    Automático
    OK