Cifra Club

Reunion

The XX

Tablatura: Principal (guitarra)
Tom: G
Verso
----------------2------------------------------------------------------------|
---3--2---5-----3------------------------------------------------------------|
---4--2---4-----4------------------------------------------------------------|
-----------------------------------------------------------------------------|
-----------------------------------------------------------------------------|
-----------------------------------------------------------------------------|
We visit a life we both left behind
We know the heart
Move to the ever-moving
Or, blazin', we go over
And over and over and over again


   2x                                                      at the end
----------------2------------------------------------------2---2---2---------|
---3--2---5-----3----------------------------------------5---5---5---5--3----|
---4--2---4-----4------------------------------------------------------------|
---4--2---6-----4------------------------------------------------------------|
-----------------------------------------------------------------------------|
-----------------------------------------------------------------------------|
If I wait too long, I lose you from my sight
Maybe tonight
I could stop dreaming
And start believing in forever
And ever and ever and ever again


Refrão:
---2-2-2---4-4-4---2-2-2---2-2-2--------------------------------------------|
---2-2-2---5-5-5---3-3-3---3-3-3--------------------------------------------|
---2-2-2---4-4-4---2-3-2---4-4-4--------------------------------------------|
----4-4-4--6-6-6----0-0-0---4-4-4-------------------------------------------|
------------7-7-7-----------------------------------------------------------|
----------------------------------------------------------------------------|
Reunion, reunion
Reunion, reunion
Never not ever, never not ever again

Verso:
---2------4-----2------------------------------------------------------------|
---3--2---5-----3------------------------------------------------------------|
---4--2---6-----2------------------------------------------------------------|
---4--4---6-----0------------------------------------------------------------|
------4----------------------------------------------------------------------|
-----------------------------------------------------------------------------|
And it's burning inside 'til you give it up
How long should I wait?
There's no need to hide, I let
Only you in here

---2--2---4---4---2---2------------------------------------------------------|
---3--2---5---5---3---3------------------------------------------------------|
---4--2---6---4---2---2------------------------------------------------------|
---4--4---6---6---0---0------------------------------------------------------|
-----------------------------------------------------------------------------|
-----------------------------------------------------------------------------|
There's an end to us with someone else inside
You shine your light
There goes that feeling, won't let me see them
Never not ever, never not ever again

Outro:
-----------------7-----------------------------------------------------------|
---10--10--9-----7-----------------------------------------------------------|
---11--9---9-----7-----------------------------------------------------------|
---11--11--9-----9-----------------------------------------------------------|
---9---12--7-----------------------------------------------------------------|
-----------------------------------------------------------------------------|
Did I see you see me in a new light?
Did I see you see me in a new light?
Did I see you see me in a new light?
Never not ever again
Did I (Never not ever) see you (Never again)
See me (Never not ever) in a new light? (Never not ever again)
Did I see you see me?
Never not ever, never not ever again
reproducciones 20
Acordes para:
    Composição: Jamie Smith / Oliver Sim / Romy Madley Croft Colaboración y revision:
    • Nathália Sobral

    0 comentarios

    mostrar más comentarios

    ¿Conseguiste tocar?

    0 tocaron 0 aún no

    ¡Graba un vídeo tocando Reunion y envianoslo!

    00:00 / 00:00
    outros vídeos desta música
    repetir qualidade Automático
    Outros vídeos desta música
    00:00 / 00:00
    Automático
    OK