Cifra Club

Swept Away

The XX

Tablatura: Principal (guitarra)
Tom: G
Verso:
------------------------------------------------1----------------------------|
---4--2---4--2------1--------4--2-----4---2---1-1----------------------------|
---3--3---3--3---3--1--------3--3-----3---3-3---1----------------------------|
--------------------3---------------------------3----------------------------|
--------------------3--------------------------------------------------------|
-----------------------------------------------------------------------------|

I´ll never deceive...         We´re right here,....
-----------1--------------------1----8-------------------------------------------------|
---2--4---3--------6---4--------2----9-----2-------------------------------------------|
---3--5---1-------6---5---------3----10----3-------------------------------------------|
---3--5-------------------------3----10----3-------------------------------------------|
---1--3------------------------------------1-------------------------------------------|
---------------------------------------------------------------------------------------|

Solo de Baixo:                                 Aaaa-Aaaa Aaa-Aaa Aaaa
----------------------------------------------------------------1----8-----1---------|
----------------------------------------------------------------2----9-----2---------|
----------------------------------------------------------------3----10----3---------|
----------------------------------------------------------------3----10----3---------|
---1-1---1-1--1-1-1---------------------------------------------1----8-----1---------|
-0----------------------7--7-7--7-7--7-0-0-0--0--0-0---------------------------------|


2x
------1-----1-----------------------------------------------------------------------|
------------------------------------------------------------------------------------|
----------------------------------------------3-------3-----------------------------|
---3-----3----------------10---10-------------3-------3-----------------------------|
---1-----1----------------------------------1--------1------------------------------|
------------------------7---7-------------------------------------------------------|


------1-----1------4-----2-------4----2-----1-------------------------------------|
----------------------------------------------------------------------------------|
-------------------------------------------------------3------3-------------------|
---3-----3-----3-----3-----3------3-----3-----3--------3------3-------------------|
---1-----1-----1-----1-----1------1-----1-----1------1-------1--------------------|
----------------------------------------------------------------------------------|

Verso
Verso
Refrão
reproducciones 7
Acordes para:
    Composição: Jamie Smith / Oliver Sim / Romy Madley Croft Colaboración y revision:
    • Nathália Sobral

    0 comentarios

    mostrar más comentarios

    ¿Conseguiste tocar?

    0 tocaron 0 aún no

    ¡Graba un vídeo tocando Swept Away y envianoslo!

    00:00 / 00:00
    outros vídeos desta música
    repetir qualidade Automático
    Outros vídeos desta música
    00:00 / 00:00
    Automático
    OK