Cifra Club

Tatics

The Yellow Monkey

Cifrado: Principal (guitarra y guitarra eléctrica)
tono: G
[Intro]

Solo 1 [Guit. 1] PowerChord OFF
   Em               A       Am
e|--------------------------------------|-------
B|-------0-------0-------2-------1------|------
G|-----0---0---0---0---2---2---2---2----|----- (2x)
D|--------------------------------------|----
A|-------------------0-------0----------|---
E|--0--------0--------------------------|--

Base 1 [Guit. 2] (2x)
    Em    G     A     Am 
e|-----|--3--|--5--|--5--|-------
B|-----|--3--|--5--|--5--|------
G|-----|--4--|--6--|--5--|----- (2x)
D|--2--|--5--|--7--|--7--|----
A|--2--|--5--|--7--|--7--|---
E|--0--|--3--|--5--|--5--|--

Solo 2 [Guit.1] PowerChord ON + Base 1 [Guit. 2] POwerChord ON
                                           Final      
e|--0---3-0--7-7-7-3-5-5-5-3-5---|--------|--5/7\5\3--0~~~~--|-------
B|-------------------------------|------- |------------------|------
G|-------------------------------|-(4x)-  |------------------|-----
D|-------------------------------|-----   |------------------|----
A|-------------------------------|----    |------------------|---
E|-------------------------------|---     |------------------|--
                                                      Em... (Guit.2)
Verso 1

Em   G         A    Am       Em      G       A    Am
Kira tto shita kimi no me ni doki to shita hirusagari
Em              F#     B      C       D#           G
Shaki tto shita ore no karada maru de tamesareteru you ni
Em   G        A    Am          Em   G         A   Am
Tsun to shita kimi no kuuki ni zoku tto shita koigokoro wa
Em            F#      B          C       D#      G
Zara to shita suna no kamisareru ga mama yoru ni naru

Am              Em              Am            Em
Soro soro himan no kuchibiru de wine wo nomasetekurenai ka
Am                  Em         F#            B
Mangetsu no yoru ni musubareta otoko to onna wa eien sa

   \ Em     G       A      Am
 R \ Hageshiku Lady Ah gimme your Love
   \ Em     G      A     Am
   \ Ayashiku Lady I need your love
 e \ G             D
   \ Tamani miseru samishigena me ga
   \ C             B
 f \ Uso ka hontou ka wakaranai
   \
   \ Em   G       A      Am
 r \ Sunaoni Lady Ah gimme your love
   \ Em    G          A     Am
   \ Kanjitemite Lady I need your love
 ã \ G               D
   \ Kimi no shigusa ni furi mawasarete
   \ C               B           B7      Em...
 o \ Muchuu no ai wa ore no naka de odoru

[Base 1] + [Solo 2] (2x)

Verso 2

Em   G         A    Am      Em    G        A    Am
Sara tto shita kami wo toki tsuya to shita hada wo yose
Em           F#      B      C           D#      G
Kotoba asobi wo suru you ni kimi wa ore wo mote asubu

[Solo 3] Não descrito...

Am                 Em           Am                Em
Kakehiki wa tsuyoi kimi no naka ayamachi wa yowai ore no naka
Am           Em               F#            B       (Bridge) B B C# D Em...
Suki na dake tanoshimeba iisa otoko to onna wa eien sa

Brigde      +     Solo 1 (aqui emenda...)
    B B   B C# D  Em              A       Am
e|------|------------------------------------------|-------
B|------|-------------0-------0-------2-------1----|------
G|--4-4-|-4-6--7----0---0---0---0---2---2---2---2--|-----
D|--4-4-|-4-6--7-----------------------------------|----
A|--2-2-|-2-4--5------------------0-------0--------|---
E|------|---------0-------0------------------------|--

     Solo 1 --> PowerChord OFF <--

    \ Em     G       A      Am
    \ Hageshiku Lady Ah gimme you love
 R  \ Em     G      A     Am
    \ Ayashiku Lady I need your love
    \   
 e     --> PowerChord ON <--
    \
    \ G             D
 f  \ Tamani miseru yasashii egao ga
    \ C                D
    \ Uso ka hontou ka wakaranai
 r  \
    \ Em    G      A     Am
    \ Sunaoni Lady Ah gimme your love
 ã  \ Em      G        A     Am
    \ Kanjitemite Lady I need your love
    \ G                  D
 o  \ Kimi no shigusa de ore wo koroshite
    \ C              B         B7
    \ Sono isshun ga nani yori shiawase sa

Solo 2 [Guit. 1]+ Base 1 [Guit. 2]

e|--0---3-0--7-7-7-3-5-5-5-3-5---|-------
B|-------------------------------|------ 
G|-------------------------------|-----  
D|-------------------------------|----   
A|-------------------------------|---    
E|-------------------------------|--     
    Em  G       A     Am
                Yamino naka odoru
    Em  G       A     Am
                Dakishimete odoru
    Em  G       A     Am
                Nan do demo odoru
    Em  G       A     Am
                eien ni odoru
    Em  G       A     Am
                Eien ni odoru
    Em  G       A     Am
                eien ni odoru...

Final --> Solo 2 + Base 1... (até quando quiser...)
Compositor não encontrado.
Colaboración y revisión:
  • Rodolfo Silva
132 vistas
    • ½ Tono
    • A
    • Bb
    • B
    • C
    • Db
    • D
    • Eb
    • E
    • F
    • F#
    • G
    • Ab
  • Agregar a la lista

    0 comentarios

    Ver todos los comentarios

    ¿Lograste tocar?

    0 Tocaron 0 Aún no

    ¡Graba un video tocando Tatics y envíanoslo!

    00:00 / 00:00
    Outros vídeos desta música
    Repetir Calidad Automático
    Outros vídeos desta música
    00:00 / 00:00
    Automático
    OK