Cifra Club

New Fang

Them Crooked Vultures

Chords: Principal (acoustic and electric guitars)
tone: D
(intro)
E |--------------------------------------------------------------------|
B |--------------------------------------------------------------------|
G |---------------9-7---9-7-----9-7---------7--------------------------|
D |--x5~--x8-x9-9-9-7-9-9-7-9-9-9-7-7-7-5-5-7--------------------------|
A |--x5~--x8-x9-9-7-5-9-7-5-9-9-7-5-7-7-5-5-5--------------------------|
E |--x3~--x6-x7-7-----7-----7-7-----5-5-3-3----------------------------|

E |--------------------------------------------------------------------|
B |--10/12---10\7------------------------------------------------------|
G |-----------------7/9-7\4--2-2/4-------------------------------------|
D |--------------------------------------------------------------------|
A |--------------------------------------------------------------------|
E |--------------------------------------------------------------------|

E |--------------------------------------------------------------------|
B |--------------------------------------------------------------------|
G |--9-9-x---7-7-x--7\-------------------------------------------------|
D |--9-9-x---7-7-x--7\---9-9-7--x--7-7-9-------------------------------|
A |--7-7-x---5-5-x--5\---9-9-7--x--7-7-9-------------------------------|
E |----------------------7-7-5--x--5-5-7-------------------------------|

E |--------------------------------------------------------------------|
B |--12\10/12---10\7/10--//10\-----------------------------------------|
G |----------------------------/9-7---------7--------------------------|
D |--------------------------------9-7--7-9---9------------------------|
A |--------------------------------------------------------------------|
E |--------------------------------------------------------------------|

(ponte)
E |--------------------------------------------------------------------|
B |--------------------------------------------------------------------|
G |--------------------------------------------------------------------|
D |--------------------------------------------------------------------|
A |--------------------------------------------------------------------|
E |--0h9-9-9--0h9-9-9--0-9/12---0h9-9-9--0h9-9-0~----------------------|

E |--9~----9/10--9~------------//10\9~---------------------------------|
B |------------------9\5~--3\2---------etc-----------------------------|
G |--------------------------------------------------------------------|
D |--------------------------------------------------------------------|
A |--------------------------------------------------------------------|
E |--------------------------------------------------------------------|

E |--------------------------------------------------------------------|
B |--------------------------------------------------------------------|
G |------9-7---9-7-----9-7-------------9-7---9-7-----9-7---------------|
D |--9-9-9-7-9-9-7-9-9-9-7-7-7-5-5-9-9-9-7-9-9-7-9-9-9-7-7-7-5-5-------|
A |--9-9-7-5-9-7-5-9-9-7-5-7-7-5-5-9-9-7-5-9-7-5-9-9-7-5-7-7-5-5-------|
E |--7-7-----7-----7-7-----5-5-3-3-7-7-----7-----7-7-----5-5-3-3-etc---|

E |--------------------------------------------------------------------|
B |--------------------------------------------------------------------|
G |--------------------------------------------------------------------|
D |--9\-9\--------7p5----9\-9\--------7p5------------------------------|
A |--9\-9\--7p5-------7--9\-9\--7p5-------7----------------------------|
E |--7\-7\------7--------7\-7\------7----------------------------------|

E |---------------------------------------------10-12b13.5-10-12-------|
B |-12-12~-10-12-10----10-------------10b12brbr------------------12~---|
G |-----------------11----11-9-----------------------------------------|
D |----------------------------9~-7h9----------------------------------|
A |--------------------------------------------------------------------|
E |--------------------------------------------------------------------|

E |--------------------------------------------------------------------|
B |----10--------------------------------------------------------------|
G |--11----------------------------------------------------------------|
D |--------\\9b10-x----------------------------------------------------|
A |--------------------------------------------------------------------|
E |--------------------------------------------------------------------|
00:00 / 00:00
Other videos of this song
Repeat
Other videos of this song
Composed by Them Crooked Vultures
Collaboration and Review:
  • wagner rocha
71 views
    • ½ Tone
    • A
    • Bb
    • B
    • C
    • Db
    • D
    • Eb
    • E
    • F
    • F#
    • G
    • Ab
  • Add to list
    00:00 / 00:00
    OK