Cifra Club

Bad Reputation

Thin Lizzy

Cifrado: Versão 2 (guitarra y guitarra eléctrica)
tono: F#
standard tunning (EADGBE)

intro/ verse 1
|---------|
|---------|
|---------|
|------4^-| X4 
|66666---6|
|---------|

|------------------------------------|
|------------------------------------|
|------------xxxx---xxxx---xxxxxx----|
|------------xxxx-8-xxxx-6-xxxxxx-4-3| x4
|6-6-6-6-4-6-xxxx-6-xxxx-4-xxxxxx-2-1|
|4-4-4-4-2-4-------------------------|

Verse 2
|------------------------------|
|------------------------------|
|------------------------------|
|-------4----------------4-----|
|6--6666-6--6666-4-6-6666-6-4-4|
|----------------------------6-|

Pre-chorus
|--------------|
|--------------|
|--------------|
|8--8-8-8-8-6-8|  X4
|6--6-6-6-6-4-6|
|--------------|

Chorus X4
Composición de Brian Downey / Phil Lynott / Scott Gorham
2 vistas
    • ½ Tono
    • A
    • Bb
    • B
    • C
    • Db
    • D
    • Eb
    • E
    • F
    • F#
    • G
    • Ab
  • Agregar a la lista

    0 comentarios

    Ver todos los comentarios

    ¿Lograste tocar?

    0 Tocaron 0 Aún no

    ¡Graba un video tocando Bad Reputation y envíanoslo!

    00:00 / 00:00
    Outros vídeos desta música
    Repetir Calidad Automático
    Outros vídeos desta música
    00:00 / 00:00
    Automático
    OK