Cifra Club

Bad Reputation

Thin Lizzy

Tab de bajo: Principal
This sounds pretty nice, its a good song...

G-----------------------------|
D-----------------------------|
A------3----------------------|
E-5-555-5---------------------| x4

G----------------------------|
D----------------------------|
A------5--9--7--5-3----------|
E-7-777-7--------------------| x4

G------------------------------|
D------------------------------|
A------3-------------3---------|
E-5-555-5-555-3-5-555-5-3-0-3--| x4

G----------------------------|
D----------------------------|
A------3---------------------|
E-5-555-5--------------------| x4

G----------------------------|
D----------------------------|
A------5--9--7--5-3----------|
E-7-777-7--------------------| x4

Im not really show about the bass during the guitar solo, so you could probably just play...

G-----------------------------|
D-----------------------------|
A------3-------------3--------|
E-5-555-5-555-3-5-555-5-3-0-3-|

After the solo...

G----------------------------|
D----------------------------|
A------5--9--7--5-3----------|
E-7-777-7--------------------| x4

G-----------------------------|
D-----------------------------|
A------3-------------3--------|
E-5-555-5-555-3-5-555-5-3-0-3-|

Composición de Brian Downey / Phil Lynott / Scott Gorham
20 vistas

0 comentarios

Ver todos los comentarios

¿Lograste tocar?

0 Tocaron 0 Aún no

¡Graba un video tocando Bad Reputation y envíanoslo!

00:00 / 00:00
Outros vídeos desta música
Repetir Calidad Automático
Outros vídeos desta música
00:00 / 00:00
Automático
OK