Cifra Club

Aprenda

Cowboy Song

Thin Lizzy

Tablatura: Principal (guitarra)
Tom: A
Afinação: Eb


Intro
E-------------------------------------2-----2---3p2------
B------5h5p5-------------------------2------3---3-3------
G----6-6h7p6------------------------2-------2------2-----
D---7--------7----2-----22---------4----4---0-0----------
A--7-------------2-2-2h4--4p2----4------4----------------
E-5-------------0------------0---2------2----------------

E--------------------------------------2-----2-3p2-------
B------5h5p5-------------12------------------3----3------
G----6-6h7p6---------------9----------2------2-----2-----
D---7--------7---------11---11-------4---4---0------0----
A--7----------77---11-11------------4----4---------------
E-5------------5---9-----------4---2-----2---------------

E--------------------------------------------2----2-------
B------5h5p5-------------------------2-------3---3---3----
G----6-6h7p6------------------------2-2------2--2-----2---
D---7-------7-----2-------22-------4---------0-0-------0--
A--7---------7---2-2-2-2h4--4p2---4------4----------------
E-5-------------0--------------0-2------2-----------------

E-------------------------------2----2-----------------
B-----5h5p5---------12---------------3-----------------
G-----6h7p6--------9--9--------2-----2-----------------
D---7------7-----11----11-----4---4--0-----------------
A--7-----------11------------4----4--------------------
E-5-----------9-------------2-----2--------------------

continua com...
E----------------------------------------------------------------------
B---------------------------*------------------------------------------
G----------------------------------------------------------4----6------
D--7-7--77--7--77--------7---77-7--77--7--77--------2------------7-5---
A---5-55---4-44---55-4---------9-99---7-77--5-4-2-0-0---2/5--5/7----7--
E-5-------------------7-5----------------------------------------------

*guitarra 2
E----------------------------------------------------
B-1010---10----1010---1010--10----1010---------------
G----------------------------------------------------
D------12--1212-----------11--1111-----9--------7----
A----------------------------------------12-9-7-7----
E----------------------------------------(-pm-)-5----

Verso

A E F#m (E) D
A C#m F#m (E) D
A E F#m (E) D
A C#m F#m (E) D

Refrão

Guitarra 1
E----------------------------------------------------
B--------2xs------------------(**)-------------------
G--------------------------------6----7----9---------
D-77-7--77---7--77--------2--------------------------
A---9-99----7-77--5-4-2-0-0---4/7--7/9-9/11----------
E----------------------------------------------------

Guitarra 2
E----------------------------------------------------
B---------2xs---------------(**)---------------------
G----------------------------------------------------
D-77-7--77--7--77-------7----------------------------
A---5-55---4-44---55-4--7---/14----------------------
E---------------------7-5----------------------------

Verso

Refrão sem o (**)

Solo 1

E------------------------------------------12b14r12b14--
B-10vvv-7-10vvv-7-10--12b14-12p10--12-10----------------
G--------------------------------11---------------------
D-------------------------------------------------------
A-------------------------------------------------------
E-------------------------------------------------------

E-12b14-12p10--12-10--------12-------------------------
B------------12-------12b~~~--r12-10--12-10------------
G-----------------------------------11-----------------
D-------------------------------------------/9b10-7-7--
A--------------------------------------------------9---
E------------------------------------------------------

E----------------------------------------------------
B----------------------------------------------------
G-9/11~~~-------14-----14-----14-----14--------------
D----------14h16--14h16--14h16--14h16--16p14-14------
A----------------------------------------------------
E----------------------------------------------------

E-------------------------------------------14-----14-----14-----14-
B-17p14--17p14--17p14--17p14--17p14----14h17--14h17--14h17--14h17---
G------14-----14-----14-----14-----14-------------------------------
D-------------------------------------------------------------------
A-------------------------------------------------------------------
E-------------------------------------------------------------------

E-----------14---17-14-----------------------------------
B-14--17b19----17-----17-17p14-------------14--14-15-14--
G-----------------------------16b18---14h16--16----------
D--------------------------------------------------------
A--------------------------------------------------------
E--------------------------------------------------------

E---------------------------------------------------------------
B-------14--14-15-14--------14--14-15-14------------------------
G--14h16--16-----------14h16--16--------16-14--16-14-14-141414/-
D--------------------------------------------16---------141414/-
A---------------------------------------------------------------
E---------------------------------------------------------------

Harmonização após solo (2xs)

Guitarra 1
E-1717--17----1717---17----1717----------------------
B----------------------------------------------------
G-----19--1919-----18--1818-----16-------------------
D----------------------------------19-16--16h19~~~---
A---------------------------------------19-----------
E----------------------------------------------------

Guitarra 2
E----------------------------------------------------
B----------------------------------------------------
G----------------------------------------------------
D-77-7--77--7--77--77-------2------------------------
A---5-55---4-44-------5-4-2-0------------------------
E----------------------------------------------------

Bridge (4xs)

Guitarra 1
E----------------------------------------------------
B----------------------------------------------------
G----------------------------------------------------
D-77----77----77--------2----------------------------
A---5-5---4-4---5-4-2-0-0----------------------------
E----------------------------------------------------

Guitarra 2
E----------------------------------------------------
B----------------------------*-----------------------
G---------------------------7p6----------------------
D-77---77----77--------2----7p7----------------------
A---9-9--7-7---5-4-2-0-0-----------------------------
E----------------------------------------------------
*só na segunda vez

Segunda Harmonização

Guitarra 1
E-------------------------------------------------------------12-
B----------------------------------------------------101010h12---
G-11~--9~--7~--6---------11~--9~--7~-----------999h11------------
D----------------7b9r7--------------------777h9------------------
A--------------------------------------7h9-----------------------
E----------------------------------------------------------------

Guitarra 2
E----------------------------------------------------------
B-------------------------------------------------------5--
G-7~--6~--4~--2--------7~--6~--4~~---------------222h4/6---
D--------------2b4r2------------------------222h4----------
A--------------------------------------222h4---------------
E-----------------------------------2h5--------------------

Só baixo 
G----7--
D-----7-
A-7h9-7-

Segunda Harmonização

Solo 2

E----------------------------------------14------------
B-17---17---17----17-------------------14--17p14-17p14-
G-16b1816b1816b18-16b18r16-14--14-16b18----------------
D----------------------------16------------------------
A------------------------------------------------------
E------------------------------------------------------

E----------------------------------------------------
B-17p14-17p14-17p14-17p14-17p14----------------------
G------------------------------16b18-14--14--14-16-16
B--------------------------------------16------------
A----------------------------------------------------
E----------------------------------------------------

E----------------------------------------------------
B----------------------------------------------------
G-16-14----------------------------------------------
D----------------------141414-----141414-----141414--
A--------12-14-12-14/16------14/16------14/16--------
E----------------------------------------------------

E------------------------------------14--------------
B----------------------------------14--17p14--17b19--
G--------------------14141414-16b18------------------
D------141414---14/16---------(------5xs----)--------
A-14/16----------------------------------------------
E----------------------------------------------------

E----------------------------------------------------
B-17-15-14-------------------------------------17----
G---------14------1414--18p16--14---16-14-16b18--r16-
D------------14h16-----------16----------------------
A----------------------------------------------------
E----------------------------------------------------

E--------------------------------------------17-16-14-
B-----------------------------------------------------
G-14--------------------------------14--16b18---------
D---16-14---------------14-16--14-16------------------
A--------16-14-----14h16-----16-----------------------
E-------------17-14-----------------------------------

E-16-17----------------------------------------------
B------14--17-14-17b19bb-/0--------------------------
G----------------------------------------------------
D----------------------------------------------------
A----------------------------------------------------
E----------------------------------------------------

Refrão 3xs

Final

Guitarra 1
E---------------------
B---------------------
G------------------2--
D------------------2--
A-5---7---9---11---0--
E---------------------

Guitarra 2
E---------------------
B---------------------
G-----------------2---
D-----------------2---
A-0---2---4---5---0---
E---------------------


2 horas e 1/2 de muito esforço.
Compositor Brian Downey / Phil Lynott
Colaboración y revision:
  • Gabriel Silva
132 reproducciones
    • ½ Tom
    • A
    • Bb
    • B
    • C
    • Db
    • D
    • Eb
    • E
    • F
    • F#
    • G
    • Ab
  • Adicionar à lista

    0 comentarios

    Mostrar mais comentários

    ¿Conseguiste tocar?

    0 Tocaron 0 Ainda não

    Grave um vídeo tocando Cowboy Song e mande pra gente!

    00:00 / 00:00
    outros vídeos desta música
    repetir qualidade Automático
    Outros vídeos desta música
    00:00 / 00:00
    Automático

    Cifra Club Pro

    Aproveite o Cifra Club com benefícios exclusivos e sem anúncios
    7 dias grátis
    Cifra Club Pro
    Aproveite o Cifra Club com benefícios exclusivos e sem anúncios
    7 dias grátis
    OK