Cifra Club

Aprenda

Dancing In The Moonlight

Thin Lizzy

Tab de bajo: Versão 5
Dancing in the Moonlight (it's caught in it's spotlight)

Intro: 
G|------------------------------------------------------------|
D|------------------------------------------------------------|
A|-----55-7-77--55-7--55-3x-320-02/55-7-77--55-7--55-3x-320---|
E|-6/77-------77----77---------3----------77----77---------3--| 

G|-xxxxxxx--|
D|-xxxxxxx--|
A|-xxxxxxx--|
E|----------|

Verse:
G|-----------------------------|
D|---------------------5-5-55--|
A|-7-7-77-5-5-55-3-3-33--------| x4
E|-----------------------------|

Every so often Phil plays this instead of the standard verse line,
G|-------------------------------|
D|-------------------------------|
A|-7-7-77-9-9-99-10-10-1010-10~--| x4
E|-------------------------------|

Chorus:
G|----------------------------------|
D|-------------------------5-5-55---|
A|-7-7-77--5-5-55--3-3-33-----------| x2
E|-------7-------7-------3----------|

G|-xxxxxxx--|
D|-xxxxxxx--|
A|-xxxxxxx--|
E|----------|

Verse:
G|-----------------------------|
D|---------------------5-5-55--|
A|-7-7-77-5-5-55-3-3-33--------| x4
E|-----------------------------|

Solo:
G|------------------------------------------------------------|
D|------------------------------------------------------------|
A|-----55-7-77--55-7--55-3x-320-02/55-7-77--55-7--55-3x-320---|
E|-6/77-------77----77---------3----------77----77---------3--| 

And everytime you have to repeat this riff just ignore the 
G|---------|
D|---------|
A|---------|
E|--6/77---|
5 reproducciones

0 comentarios

Ver todos os comentários

¿Conseguiste tocar?

0 Tocaram 0 Ainda não

Grave um vídeo tocando Dancing In The Moonlight e nos envie!

00:00 / 00:00
outros vídeos desta música
repetir qualidade Automático
Outros vídeos desta música
00:00 / 00:00
Automático
OK