Cifra Club

Aprenda

Dancing In The Moonlight

Thin Lizzy

Tab de bajo: Versão 2
				'Dancing in th Moonlight'
			            as performed by:

I picked this up myself. It´s basicly right, exept he does decorate it a bit,
but otherwise it should be right. Have fun! ¦o)



Intro:

G|---------------------------------------------------------------------
D|---------2--2-2---------2--------------------------------------------
A|-2-2-5-5--------5-2-5-5----2-2-5-5-3--3-3-2--------------------------
E|--------------------------------------------5-3----------------------




Verse and Chours: (The hammer-on sounds cooler)

G|---------------------------------------------------------------------
D|---2-2---------------------------------------------------------------
A|-------3h5-5--2h3-3--------------------------------------------------
E|--------------------3-3----------------------------------------------




End part:

G|---------2-2-4-------------------------------------------------------
D|-2-2-5-5-------------4-4-5-5-7--------2-2-3-3-5----------------------
A|---------------0h5-5------------0h3-3------------------2-2-3-3-5-----
E|-------------------------------------------------0h3-3---------------





G|------------2-2-5----------------------------------------------------
D|----2-2-5-5--------------4-4-5-5-4--------2-2-3-3-2------------------
A|-------------------0h5-5------------0h3-3------------------2-2-3-3-2-
E|-----------------------------------------------------0h3-3-----------




Tabed by Andri Runolfsson. 
Any comments or corrections? Send me a line at: *

10 reproducciones

0 comentarios

Ver todos os comentários

¿Conseguiste tocar?

0 Tocaram 0 Ainda não

Grave um vídeo tocando Dancing In The Moonlight e nos envie!

00:00 / 00:00
outros vídeos desta música
repetir qualidade Automático
Outros vídeos desta música
00:00 / 00:00
Automático
OK