Cifra Club

Aprenda

Dear Miss Lonely Hearts

Thin Lizzy

Tab de bajo: Principal
Album: Solo In Soho

Intro
G|----------------------------------------|
D|0--0~-----------------------------------|
A|--------2--2~---------0--0~-------------| x1
E|---------------3--3~--------------------|

Verse
G|----------------------------------------------------------------------|
D|0-0-0-0-0-0-0-0-------------------------------------------------------|
A|----------------4-4---2-2-2-2-2-2-2-2-----------------0-0-2-2-3-3-4-4-| x1
E|-------------------------------------3-3-3-3-3-3-3-3------------------|

Chorus (Its The Same As The Verse)
Solo
G|-------------------------------------------------------------|
D|----------7----------7-------------------4-------------4-----|
A|5-5-5-5-5--5-5-5-5-5---5-5-4-4-2-2-2-2-2---2-2-2-2-2-----0-0-|
E|-------------------------------------------------------------|

|----------------------------------------------------|
|----------------------------------------------------|
|----------------------------------------2-2-3-3-4-4-|
|3-3-3-3-3-3-3-3-3-3-5-5-5-5-5-5-5-5-5-5-------------|

Bridge (Its The Same As The Verse)

Compositor Jimmy Bain / Phil Lynott
17 reproducciones

0 comentarios

Mostrar mais comentários

¿Conseguiste tocar?

0 Tocaron 0 Ainda não

Grave um vídeo tocando Dear Miss Lonely Hearts e mande pra gente!

00:00 / 00:00
outros vídeos desta música
repetir qualidade Automático
Outros vídeos desta música
00:00 / 00:00
Automático
OK