Cifra Club

Aprenda

Emerald

Thin Lizzy

Tab de bajo: Principal
Intro                                             
G|--------------------------------------------------------------------------
D|--------------------------------------------------------------------------
A|-------------------------------------------------------------6-6-6-6-6-6-6
E|---7-6-4~---2-7~---7-6-4~---7-2~---7-6-4~---2-7~---7-6-4~--7--------------

Verse
G|----------------------------------------------------|
D|----------------------------------------------------|
A|----------------------------------------------------|
E|-7-6-4-4-4-4-4-4-4-4-4-4-4-4-4-2-7-7-7-7-7-7-7-7-7-7|

G|----------------------------------------------------|
D|----------------------------------------------------|
A|----------------------------------------------------|
E|-7-6-4-4-4-4-4-4-4-4-4-4-4-4-4-7-2-2-2-2-2-2-2-2-2-2|

G|----------------------------------------------------|
D|----------------------------------------------------|
A|---------------------------------------6-6-6-9------|
E|-7-6-4-4-4-4-4-4-4-4-4-4-4-4-2-7-7-9-9--------------|
                                
G|-------------------------------------------|
D|-------------------------------------------|  
A|-----------------------------6-6-6-6-6-6-6-| 
E|-7-6-4-4-4-4-4-4-4-4-4-4-4-4---------------|
                               
Chorus
G|------------------------------------|
D|-6-6-6-6-4-4------------------------|
A|----------6-6-4-2-4-2---------------|
E|----------------------4-4-4-4-4-4-2-|  

G|------------------------------------|
D|------------------------4-4-4-4-4-6-|
A|-----------2-2-2-2-4-6---------6----|
E|-2-2-2-2-4--------------------------|

Middle
G|--------------------------------------------------------------------------
D|--------------------6~---------------------------------------6~-----------
A|---------------------------------------4~---------------------------------
E|-4-4-4-4-4-4-4-4-4---4-4-4-4-4-4-4-4-4----4-4-4-4-4-4-4-4-4----4-4-4-4-4-

-----------|
-----------|
-----------|
4-4-4-4---2-|

Guitar Harmony
G|--------------------------------------|
D|-6------------4-----------------4--6--|
A|----6--4-6-7--------------7-6-4-------|
E|-----------------4----0---------------|

Composição de Brian Downey / Brian Robertson / Phil Lynott / Scott Gorham
31 reproducciones

0 comentarios

Ver todos os comentários

¿Conseguiste tocar?

0 Tocaram 0 Ainda não

Grave um vídeo tocando Emerald e nos envie!

00:00 / 00:00
outros vídeos desta música
repetir qualidade Automático
Outros vídeos desta música
00:00 / 00:00
Automático
OK