Cifra Club

Its Only Money

Thin Lizzy

Tab de bajo: Principal
Tabbed By : Lorcan Pigott-Dix


Tuning: Normal

Intro: Reapet as many times necessary.

G|--------||----------------|----------------|----------------||
D|--------||7---5-----------|7---5-------5---|7---------------||
A|--------||--------7-------|--------7-------|----------------||
E|--------||----------------|----------------|----------------||

(second part also chorus)

G|--------||----------------|----------------|----------------|------------|
D|--------||7---5-----------|--------7---5---|----5---7-------|------------|
A|--------||--------7---5---|----------------|7---------------|------------|
E|--------||----------------|8---5-----------|----------------|------------|

Verse is just drumming.


Breakdown with solo.

Repeat as necessary.
G|--------||----------------|----------------|----------------||
D|--------||7---5-------7---|5-------7---5---|----5---7-------||
A|--------||--------7-------|----7-----------|7---------------||
E|--------||----------------|----------------|----------------||

Second part of breakdown

G|--------||----------------|----------------|----------------|
D|--------||--7p5-----------|----------------|--7p5-----------|
A|--------||7-------7-------|5---------------|7-------7-------|
E|--------||----------------|----5---3-------|----------------|

The song is based on these parts.


| /  slide up
| \  slide down
| h  hammer-on
| p  pull-off
| ~  vibrato
| +  harmonic
| x  Mute note
============================================================================
Composición de Phil Lynott
14 vistas

0 comentarios

Ver todos los comentarios

¿Lograste tocar?

0 Tocaron 0 Aún no

¡Graba un video tocando Its Only Money y envíanoslo!

00:00 / 00:00
Outros vídeos desta música
Repetir Calidad Automático
Outros vídeos desta música
00:00 / 00:00
Automático
OK