Cifra Club

Aprenda

Rocker

Thin Lizzy

Tab de bajo: Principal
Intro
G|----------------------------------------------|
D|----------------------------------------------|
A|11-----------------0------------11----------0| x2
E|----------------------------------------------|

G|------------------|
D|------------------|
A|11-0-0-11-0-0-11-0| x1
E|------------------|

Verse
G|-------------------------------|
D|--------4-0--------------------|
A|5-5-7-0----7-0-5-7-0-3-0-0-0-3/| x2
E|-------------------------------|

G|--------|
D|--------|
A|3-3-3~/5| x1
E|--------|

G|-------|
D|5-5-5--|
A|------0| x4
E|-------|

Chorus
G|-------------------------------|
D|--------4-0--------------------|
A|5-5-7-0----7-0-5-7-0-3-0-0-0-3/| x2
E|-------------------------------|

Bridge
G|--------------------------------------------|
D|3-3-3-3-3-3-3-0--------3-3-3-3-3-3-3-3-5-3-0|
A|----------------0-3-5-----------------------| x2
E|--------------------------------------------|

The Strange Bit In The Middle Of Bridge
G|--------------------------------|
D|--------------------------------|
A|8-8-7-7-6-6-5-5-4-4-3-3-2-2-1-1-|
E|--------------------------------|

Outro (\'More, More.....\')
G|0-0-0-1-1-1-2-2-2-3-3-3-4-4-4-4|
D|-------------------------------|
A|-------------------------------| x1
E|-------------------------------|
Compositor Brian Downey / Eric Bell / Phil Lynott
9 reproducciones

0 comentarios

Mostrar mais comentários

¿Conseguiste tocar?

0 Tocaron 0 Ainda não

Grave um vídeo tocando Rocker e mande pra gente!

00:00 / 00:00
outros vídeos desta música
repetir qualidade Automático
Outros vídeos desta música
00:00 / 00:00
Automático
OK