Cifra Club

Aprenda

She Knows

Thin Lizzy

Tablatura: Principal (guitarra)
Tom: C
Intro 6x (na quarta vez entra a guitarra)
Guitarra 1                                 
E--------------------------------------
B--------------------------------------
G-1111---9-9--77---66------------------
D-1212--1111--99---77-------7-9-7------
A-----------------------7-9------9-7---
E-------------------------------------- 

Guitarra 2
E----------------------------
B-7--5-----------------------
G-7--6-----------------------
D-7--7------------7-9-7------
A-5--7--------7-9------9-7---
E----------------------------

Verso (4xs)
Guitarra 1
E--------------------------------------
B--------------------------------------
G-1111---9-9--77---66------------------
D-1212--1111--99---77-------7-9-7------
A-----------------------7-9------9-7---
E--------------------------------------

Guitarra 2
  D  A
E----------------------------
B-7--5-----------------------
G-7--6-----------------------
D-7--7------------7-9-7------
A-5--7--------7-9------9-7---
E----------------------------

Refrão (4xs)

Guitarra 1 em acordes(em pestana): D (10ª casa) C#m (9ª casa) Bm (7ª casa) A (5ª casa).

Guitarra 2
E--------------------------------------
B--------------------------------------
G-9b11-9---7h9p7-7/6-6-----------------
D----------------------------7-9-7-----
A---------------------7--7-9-----9-7---
E--------------------------------------

E-----10-------------------------------------------
B-------10-----------------------------------------
G-9b11----b11-9--9p7-9p7-x7p6-7p6------------------
D--------------------------------7------7-9-7------
A------------------------------------7-9-----9-7---
E--------------------------------------------------

E---------10-9-12-/14-12-10-9--------------------------
B-10h12p10-------------------10---------10-12-10-------
G------------------------------9---9-11---------11-9---
D------------------------------------------------------
A------------------------------------------------------
E------------------------------------------------------
            E 
E--------------------------------------12-----12-----17p12--16p12--17p12--16p12---/12---
B------------------------------------12--12h14--12--------12-----12-----12-----12-/12---
G-9b11-9-------------9-11p9---9-11/13---------------------------------------------------
D---------------9-11--------11----------------------------------------------------------
A----------9/11-------------------------------------------------------------------------
E---------------------------------------------------------------------------------------

Intro (4xs)

Verso

Refrão

Intro (4xs)

Bridge (4xs)

Guitarra 1 nos acordes: F (8ª casa) Em (7ª casa) Dm (5ª casa) C (3ª casa)

Guitarra 2
E----------------------------------------------------
B----------------------------------------------------
G-12b14-12--10h12p10-10/9-9--------------------------
D------------------------------------10-12-10--------
A---------------------------10--10-12--------12-10---
E----------------------------------------------------

E-----------------------------------------------------------------------------------
B------13-----------------------------------------------13-13-13-13-13--------------
G-12b14--b14-12---12p10-12p10-x10p9-10p9--10p9-10p9---------------------------------
D---------------------------------------12---12----10-----------------10-10-10-10---
A-----------------------------------------------------------------------------------
E-----------------------------------------------------------------------------------

E-------------------------------------------8x-7-8-10-8-7-----------------
B------------------------------------------8x------------8----------------
G---10p9--9---12-12b14-12-10--12b14-12----7x--------------7/5-4-4h5p4-----
D-10----10--10---------------------------sweep------------------------5---
A-------------------------------------------------------------------------
E-------------------------------------------------------------------------
  G
E--------------------10--------------------
B-------------8-10b12---r10p8---10-8--/8---
G----------7h9----------------9-------/7---
D----5-7/9---------------------------------
A-5-7--------------------------------------
E------------------------------------------

Ordem das bases: Intro (5xs) Refrão (4xs) e E

TWIN GUITARS (2:51)

Guitarra 1
E-/12--12-9------------9-9-9h12p9--5/9-9---------------------------------------
B----------10--------10--------------------------------------------------------
G------------9-999-11-------------------11-9-11-9-6-9--------------------------
D----------------------------------------------------11-9-11-9-7-7---7--7------
A----------------------------------------------------------------------9-7---
E------------------------------------------------------------------------------

Guitarra 2
E-/9---9-------------5-5-5h9p5--5/9-9--------------------------------------
B-------10-7--------7-----------------10-7-10-10-7-10----------------------
G------------9-666-7---------------------------------9p7-9p7-6-7-7h9p7-6---
D--------------------------------------------------------------------------
A--------------------------------------------------------------------------
E--------------------------------------------------------------------------

Solo 1
E-------------------------------------------------------12b14-12b14-12-10--------------------------
B--------------------------------------7--10p7-10p7-7--------------------12b14--10--12-10----------
G-----------------------6--6-6h9p6-6--9-9-----9-----------------------------------11------12b14----
D------------7--7-9-7-9--9--------9---------------------------------------------(-----2xs------)---
A-5/9--9-7-9--9------------------------------------------------------------------------------------
E--------------------------------------------------------------------------------------------------

Solo 2
E------17------------------------------------------------------12-----------------------------10p9-
B-17b19--b19-17-17p15-17p15-15-14---------10-12p10-12p10--12b14--r14--10--10--12-10-12-10--10------
G------------------------------------9-11------------------------------11---------------11--------
D--------------------------------14------------------------------------------------------------------
A--------------------------------------------------------------------------------------------------
E--------------------------------------------------------------------------------------------------

E---9---12-12-12-12----17-17-17-17-17--------------------------------------------------------------
B-10-10---------------------------------------------------------------------------------17b19-17---
G--------------------14--------------14-14-14-14----------------14-16-16-16b18r16p14-14------------
D----------------------------------------------------------14-16-----------------------------------
A-----------------------------------------------------14/16----------------------------------------
E------------------------------------------------17-14---------------------------------------------
   E
E--------------------------------12-----12-----17p12--16p12--17p12--16p12---/12---
B------------------------------12--12h14--12--------12-----12-----12-----12-/12---
G------------9-11p9---9-11/13-----------------------------------------------------
D-------9-11--------11------------------------------------------------------------
A--9/11---------------------------------------------------------------------------
E---------------------------------------------------------------------------------

Verso 

Refrão

Intro

Bridge 

Mesmos acordes do anterior. Só muda o solo que é executado com precisos vibratos.

Guitarra 2
E-------------------------------------13-12-10--------------------
B--------------------13-12-10---10-12---------13------------------
G-12b14-12-10-9--------------12------------------12b14-12-12p10---
D-----------------------------------------------------------------
A-----------------------------------------------------------------
E-----------------------------------------------------------------

Twin Guitars do final

Guitarra 1
                                     C
E-12-10h12p10------------------------8----
B------------10----------------------8----
G--------------10-9-12-10-9-7--------9----
D----------------------------10------10---
A------------------------------------10---
E------------------------------------8----

Guitarra 2 
E-15-12h15p12---------------------15------
B------------13-------------------15b17---
G--------------14-12----------------------
D--------------------14-12-10-------------
A----------------------------12-10--------
E-----------------------------------------
Compositor Phil Lynott / Scott Gorham
Colaboración y revision:
  • Gabriel Silva
16 reproducciones
    • ½ Tom
    • A
    • Bb
    • B
    • C
    • Db
    • D
    • Eb
    • E
    • F
    • F#
    • G
    • Ab
  • Adicionar à lista

    0 comentarios

    Mostrar mais comentários

    ¿Conseguiste tocar?

    0 Tocaron 0 Ainda não

    Grave um vídeo tocando She Knows e mande pra gente!

    00:00 / 00:00
    outros vídeos desta música
    repetir qualidade Automático
    Outros vídeos desta música
    00:00 / 00:00
    Automático
    OK