Cifra Club

Aprenda

Slow Blues

Thin Lizzy

Tab de bajo: Principal
Second tab from me. This song was found on the Rockers Record i bought a few days ago 
No idea where else may find it though.

Tuning:EADG

Intro/Chorus
G:--------------------------------4~-------------------|
D:-----------------4~--------------------4~------------|
A:--4~-----4~-------------4~---------------------4~----|
E:-4------4-------4------4-------4------4-------4------|

Verse
G:------------------64-4---------------------64-4---------------------------------64-4------------------------------|
D:-------------4--4---6-6p4-------------6--6---6-6p44--4----2-2h4------------6--6---6-6p44--4----2-2h4------------6~|
A:4--4----4-4h6------------4--4----4-4h6-----------------2h4-4---4--4---4-4h6-----------------2h4-4---4--4---4-4h6--|
E:-----4h6-6--------------------4h6-6--------------------------------4h6-6--------------------------------4h6-6-----|

It has a really jazz beat and is good fun with or without anyone else playing

Please rate and comment
Composição de Brian Downey / Phil Lynott
32 reproducciones

0 comentarios

Ver todos os comentários

¿Conseguiste tocar?

0 Tocaram 0 Ainda não

Grave um vídeo tocando Slow Blues e nos envie!

00:00 / 00:00
outros vídeos desta música
repetir qualidade Automático
Outros vídeos desta música
00:00 / 00:00
Automático
OK