Cifra Club

Aprenda

Sun Goes Down

Thin Lizzy

Tab de bajo: Principal
Intro/Verse
|------------------------------------------------------------------|
|------------------------------------------------------------------|2x
|-0-0-3-3x-5~-5-5-5-5x-5~-5-5-5-5x-5~-5-5-5-5x-5~-5----------------|
|------------------------------------------------------------------|


|------------------------------------------------------------------|
|------------------------------------------------------------------|
|-0-0-3-3x---------------------------------------------------------|1x
|----------6~-6-6-6-6x-6~-6-6-6-6x-6~-6-6-6-6x-6~-6----------------|


|------------------------------------------------------------------|
|------------------------------------------------------------------|1x
|-0-0-3-3x-5~-5-5-5-5x-5~-5-5-5-5x-5~-5-5-5-5x-5~-5----------------|
|------------------------------------------------------------------|
                              repeat

  Chorus (1:04)(2:25)(4:17)
|------------------------------------------------------------------|
|----------3~-3-3-3-3x-3~-3-3-3-3x-3~-3-3-3-3x-3~-3----------------|
|-0-0-3-3x---------------------------------------------------------|
|------------------------------------------------------------------|


|------------------------------------------------------------------|
|----------5~-5-5-5-5x-5~-5-5-5-5x-5~-5-5-5-5x-5~-5----------------|
|-0-0-3-3x---------------------------------------------------------|
|------------------------------------------------------------------|


|------------------------------------------------------------------|
|------------------------------------------------------------------|
|-0-0-3-3x-----------------------------5-5-5-5-5-5-5-5-5-5-5-5-5-5-|
|----------6-6-6-6-6-6-6-6-6-6-6-6-6-6-----------------------------|

    Go back into verse without the -0-0-3-3x-

    _____________________________________________

      Symbols: ~ | hold the note
               x | Basically means a rest: I hit the string with my finger muting it 
    
   
Compositor Darren Wharton / Phil Lynott
16 reproducciones

0 comentarios

Mostrar mais comentários

¿Conseguiste tocar?

0 Tocaron 0 Ainda não

Grave um vídeo tocando Sun Goes Down e mande pra gente!

00:00 / 00:00
outros vídeos desta música
repetir qualidade Automático
Outros vídeos desta música
00:00 / 00:00
Automático
OK