Cifra Club

Aprenda

Trouble Boys

Thin Lizzy

Tab de bajo: Principal
Tabbed By:Synyster6661 [Gary Stafford]

Intro:
G|--------------------------|
D|--------------------------|
A|--------------------------| x4
E|--4h555-4h555-4h555-4h555-|

Verse:
G|---------------------------------------------------------|
D|---------------------------------------------------------|
A|-------------4h55-4h55-----------6h777-2h333-4h555-------|
E|--4h555-4h555---------4h555-4h55------------------4h555--|

Chorus:
G|-------------------------------------------------------|
D|-------------------------------------------------------|
A|-4h55-4h55---------6h7777777---------------4h555-------|
E|----------4h55-4h55---------7h8888888-4h555-----4h555--|

Solo is the same as the chorus.
and thats the whole song!
please let me know if i have missed bits.
11 reproducciones

0 comentarios

Mostrar mais comentários

¿Conseguiste tocar?

0 Tocaron 0 Ainda não

Grave um vídeo tocando Trouble Boys e mande pra gente!

00:00 / 00:00
outros vídeos desta música
repetir qualidade Automático
Outros vídeos desta música
00:00 / 00:00
Automático
OK