Cifra Club

Whiskey In The Jar

Thin Lizzy

Cifrado: Principal (guitarra y guitarra eléctrica)
Já pensou em usar uma coleção de roupas do Cifra Club? Responda as perguntas abaixo e nos ajude nessa missão! →
tono: G
Intro
E|-8---8--8\7--5--7----7--7\5----------------------|
B|----------------------------8--8---8\5-----------|
G|----------------------------------------7\5------|
D|---------------------------------------------7-5-|
A|-------------------------------------------------|
E|-------------------------------------------------|

Intro cont
E|---------------------------------------------------------|
B|---------------5/8\5-------------------------------------|
G|-----------4/7-------7-9--7--6--5------------------------|
D|-5--7\5/7--------------------------9-7-6-5---------------|
A|-------------------------------------------7-6-5---------|
E|-------------------------------------------------8-7-6\5-|

Inturlude 1                         end of inturlude
E|----------------------------| |-----------------------|
B|---------7-8--------------8-| |-----------3---------0-|
G|-7-7-7/9------9--11--7--9---| |-0-0-0-2-0---0-2-4-0---|
D|----------------------------| |-----------------------|
A|----------------------------| |-----------------------|
E|----------------------------| x4  |-----------------------| x1

Verses...
  G                                Em
E|-----------------------------------------------------------------|
B|-3---3---3---5---3---0---0---0-3---5---5---5---7\5----0---0----0-|
G|--0---0---0---0---0---0---0---------0---0---0------0--0-0-0--0---|
D|-----------------------------------------------------------------|
A|-----------------------------------------------------------------|
E|-----------------------------------------------------------------|

  C                                 G
E|-----------------------------------------------------------------|
B|-5--5--5---7---8---8-8-7---5--3--3---5---8---8-5-3---3-3-3-3-3-3-|
G|--0--0--0---0--0-0-0-0-0-0-0-------0--0--0-0-0---0-0-0-0-0-0-0-0-|
D|-----------------------------------------------------------------|
A|-----------------------------------------------------------------|
E|-----------------------------------------------------------------|

  G                                 Em
E|----------------------------------------------------------------------|
B|-3---3---3--5--3---3---0---0---0-3--5---5---5---7---5---0-0-0-0-0-0-3-|
G|-0-0-0-0-0--0--0-0-0-0-0-0-0-0-0----0-0-0-0-0-0-0-0-0-0-0-0-0-0-0-0---|
D|----------------------------------------------------------------------|
A|----------------------------------------------------------------------|
E|----------------------------------------------------------------------|

  C                                 G
E|------------------------------------------------------------------|
B|-5-5-5--7---8---8-8-7--5-3-3-----5--8--8--7--5--3--3---3---3----3-|
G|-0-0-0--0-0-0-0-0-0-0------0--0--0--0--0--0-----0---0---0---0---0-|
D|------------------------------------------------------------------|
A|------------------------------------------------------------------|
E|------------------------------------------------------------------|

Chorus
 D                      C                         
E|--------------------------------------------------------------|
B|---------------------------5-5--5--5--------------------------|
G|-7--2-2-2-2-2-4-4-4----5-5---5--5--5---8---8---8---8---8--8---|
D|-0--0-0-0-0-0-0-0-0--0---------------9---9---9---9---9--9---9-|
A|--------------------------------------------------------------|
E|--------------------------------------------------------------|

 C                      G
E|--------------------------------------------------|
B|-8\7-10--8-13-13-13--3---0---0----------0-0-0-0-0-|
G|-----------14-14-14---0---0---0--2-2--0-0-0-0-0-0-|
D|--------------------------------------------------|
A|--------------------------------------------------|
E|--------------------------------------------------|

Interlude 2
 Em                     G
E|-------------------------------------------------------------|
B|-------------------------------------------------------------|
G|-0--0--0-0-0--0--0-0-0-0-0-0--0-0-0-0-0-0-0-0--0-0-0-0-0-0-0-|
D|-0--0--0------0--0-----0-0-0--0-----0-0-----0--0-------------|
A|-------------------------------------------------------------|
E|-------------------------------------------------------------|

 Em                      G
E|--------------------------------------------------------------------|
B|--------------------------------------------------------------------|
G|--------------------------------------------------------------------|
D|0--0---0-0-0-0---0-0-0-0-0-0-0-0-0-0---0-0-0-0-0-0-0-0-0-0-0-0-0-0-0|
A|0-0--0-0-----0-0-0-0-0-----0---0-0-0-0-0-0-----0-0-0-0-0-0---0-0-0-0|
E|--------------------------------------------------------------------|

 Em
E|--------------------------------------------7--8-|
B|--------------------------------------------x----|
G|-0---0--0--0--0--0-0-0--0---0-0-0-0--0--0-0-0--0-|
D|-0---0--0--0--0----0----0---0-0---0--0--0---0----|
A|-------------------------------------------------|
E|-------------------------------------------------|

[Solo]

E|-10-8-7--7-8-7----7-----------7-8b-------12-12---12-14b-12----|
B|---------------10---10-8-8-10------12-15------15-----------15-|
G|--------------------------------------------------------------|
D|--------------------------------------------------------------|
A|--------------------------------------------------------------|
E|--------------------------------------------------------------|

Solo Cont
E|-12---12-------------------------------------------|
B|---15---12-15-13-12-10-------13-12-10--------------|
G|-----------------------12-10----------12-10-9----5-|
D|----------------------------------------------12---|
A|---------------------------------------------------|
E|---------------------------------------------------|

Solo Cont
E|-------------------7-8-10-7-8-7----7------------7-8b-|
B|--------------------------------10--10-8-7-8-10------|
G|-4b-4b-4b-4b-4b-4b-----------------------------------|
D|-----------------------------------------------------|
A|-----------------------------------------------------|
E|-----------------------------------------------------|

Solo Cont
E|-7-8-12-12----12-14b--12----12---12------------------------|
B|-----------15------------15---15----12-15-13-12-10---------|
G|---------------------------------------------------12-10-9-|
D|-----------------------------------------------------------|
A|-----------------------------------------------------------|
E|-----------------------------------------------------------|

 Solo Cont
E|-----------------------------------------------------------|
B|------------13----15----17---12--------13-12-10-10-8-10-12-|
G|-9-10-12-10----12----12---12-12---------x--x--x--x-x--x--x-|
D|-----------------------------12--12/14-14-12-10-10-8-10-12-|
A|-----------------------------------------------------------|
E|-----------------------------------------------------------|

 Solo Cont
E|-------3-5b-5b--5-3-----3-5-3-------3-5-3---------------------|
B|-3-3-5--------------5-3-------3-5-3-------5-3-2-1-3-1/5-3-4/6-|
G|-0-0----------------------------------------------------------|
D|--------------------------------------------------------------|
A|--------------------------------------------------------------|
E|--------------------------------------------------------------|

E|---------------------12----8---3-3------------------15-17-15-|
B|-5b--6-7-8--6-8/10-8----8-10-8-5-3---13-15b-15b-15b----------|
G|-----------------------------------5-------------------------|
D|-------------------------------------------------------------|
A|-------------------------------------------------------------|
E|-------------------------------------------------------------|

E|----------15-17-15---------2-3---2-----3----------2-3---2---|
B|-17-15-17----------3-3-3-5---5-5---3-5----3-3-3-5---5-5---3-|
G|-------------------4-4-4-5-7---5-7-4-5-7--4-4-4-5-7---5-7-4-|
D|------------------------------------------------------------|
A|------------------------------------------------------------|
E|------------------------------------------------------------|

E|---3--------3---2-----3--------------------------------|
B|-5----3-3-3-5-5---3-5--------------3-------------------|
G|-5-7--4-4-4---5-7-4-5-7---0-0-0-2b---0-2-0| -2b-0-0-0-0-|
D|-------------------------------------------------------|
A|-------------------------------------------------------|
E|-------------------------------------------------------|

E|-------------------------------------------------|
B|-------------------------------------------------|
G|-0--0--0--0--0--0--0--0--0--0--0--0--0--0--0--0--|
D|---0-0--0--0--0--0--0--0--0--0--0--0--0--0--0--0-|
A|-------------------------------------------------|
E|-------------------------------------------------|

E|-----------------------3-|
B|-----------3-------------|
G|-0-0-0-2-4---0-2-0-2-4---|
D|-------------------------|
A|-------------------------|
E|-------------------------|
Composición de Jörgen Elofsson
Colaboración y revisión:
  • Carlos Salvador
  • Élison Duarte
1.299 vistas
    • ½ Tono
    • A
    • Bb
    • B
    • C
    • Db
    • D
    • Eb
    • E
    • F
    • F#
    • G
    • Ab
  • Agregar a la lista

    0 comentarios

    Ver todos los comentarios

    ¿Lograste tocar?

    4 Tocaron 0 Aún no

    ¡Graba un video tocando Whiskey In The Jar y envíanoslo!

    00:00 / 00:00
    Outros vídeos desta música
    Repetir Calidad Automático
    Outros vídeos desta música
    00:00 / 00:00
    Automático
    OK