Cifra Club

Blinded When I See You

Third Eye Blind

Cifrado: Principal (guitarra y guitarra eléctrica)
Selo Cifra Club: esta cifra foi revisada para atender aos critérios oficiais da nossa Equipe de Qualidade.
tono: C
Intro/Bridges
E|--13---13---------------------------------13---13-----|
B|--13---13---------------------------------13--13-------|
G|--0----0----------------------------------0---0-------|
D|--12---12----------------------------------0---0-------|
A|--13---12--| AT the End this is thrown in---12--12-------|
E|------------------------------------------14--12------|

Verse

E|-------------------------------------------5--3--1--3------|
B|-------------------------------------------5--3--1--3------|
G|-------------------------------------------4--2--0--2------|
D|---9------7--------5--------7--------------0--0--0--0------|
A|--12------10-------8--------10-------------5--3--1--3------|
E|---9------7--------5--------7---| ALSO CAN BE----------------|

Pre Chorus
E|----------------------------------1-----3--------3----1-------|
B|----------------------------------1-----3--------3----1-------|
G|----------------------------------0-----2--------0----0-------|
D|----------------------------------0-----0--------5----0-------|
A|----8--10---15---8----------------1-----3-------------1-------|
E|----5---7---12---5--------| OR----------------------------------|


Chorus
E|----1---3---3---1--3--5-3-----------------------|
B|----1---3---3---1--3--5-3-----------------------|
G|----0---2---0---0--2--4-2-----------------------|
D|----0---0---5---0--0--0-0-----------------------|
A|----1---3-------1--3--5-3-----------------------|
E|------------------------------------------------|

Everything Else is tabbed on this site. I wrote this for more of an acoustic guitar, but
it should work with electric distorted. Only thing left is a couple lead riffs played
throughout (The "solo" is already tabbed correctly by another user)

Verse Riff
E|---------|
B|--7h8----| very quickly over and over
G|---------|
D|---------|
A|---------|
E|---------|
Otros videos de esta canción
    0 exhibiciones
      • ½ Tono
      • A
      • Bb
      • B
      • C
      • Db
      • D
      • Eb
      • E
      • F
      • F#
      • G
      • Ab
    • Agregar a la lista

    Afinação da cifra

    Afinador online

      Ops (: Contenido disponible solo en portugués.
      OK