Cifra Club

Campfire

Third Eye Blind

Cifrado: Principal (guitarra y guitarra eléctrica)
Selo Cifra Club: esta cifra foi revisada para atender aos critérios oficiais da nossa Equipe de Qualidade.
tono: A
Intro:
E|-------------------------------------------|
B|----1010-------2--------2--------0---------|
G|-11--9-9-----2---2----2---2--------2---2---|
D|-11--7-7--0~--------0----------2-----2-----|
A|--9----------------------------------------|
E|-------------------------------------------|

Verse 1:Ohhh...well I was lonely...
Play Intro

Listen to the song carefully because some notes will 
change like this...
E|-----------------0---------0-------0---------|
B|----1010-------2---2-----2--2----------------|
G|-11--9-9-----2---------2-------------2---2---|
D|-11--7-7--0~---------0----------2------2-----|
A|--9------------------------------------------|
E|---------------------------------------------|

Pre-Chorus:
E|------0--------0----------0----------0--5~---|
B|----0---0----0---0------0---0------0---------|
G|---------------------------------------------| 2x
D|-2~--------4~--------6~---------7~-----------|
A|---------------------------------------------|
E|---------------------------------------------|

Chorus:Lightning comes...
E|-5555-5555-7777--9-9-9-9---|
B|-5555-5555-7777--8-8-8-8---|
G|-7777-6666-9999-11111111---| 4x
D|-7777-7777-9999-11111111---|
A|-5555-7777-7777--9-9-9-9---|
E|------5555-----------------|

or

E|-2222-0000-0000-2222---|
B|-3333-2222-0000-2222---|
G|-2222-2222-1111-2222---|
D|-0000-2222-2222-4444---|
A|------0000-2222-4444---|
E|-----------0000-2222---|

Verse 2:
Play Verse 1

Repeat Chorus:

Bridge:This,this is...
Play Pre-Chorus 4x:

Verse 3:
Play Verse 1

Repeat Chorus:

Outro:Play Intro

Last Chord:
E|-0~---|
B|-0~---|
G|-2~---|
D|-2~---|
A|-0~---|
E|------|

End...


Campfire Lyrics:

Verse 1:
Well I was lonely in spring for this kind of thing
She's shivering alone
I bumped into you somehow
You can wear
My duct-taped vest was my party best
But it�s really all I own
Everything's changing now
And there�s all these winter stars still flying
Cassiopeia
Everything's changing now

Pre-Chorus:
She said it�s alright
It's just a bonfire

Chorus:
Lightning comes and lightning goes
And it�s all the same to me
Let it in 
�Cause i want you so
I can hardly breathe and release
Into a thousand pieces
I have broke into
Over you
Kill the flames at dawn,
I keep burning on and on

This, this is, this is the last time, its the last time
This, this is, this is your goodbye
This, this is, this is the last time, its the last time
This, this is, this is your goodbye!

Some girls break you down
Just to see you come undone
Everything's changing now

Maybe you and I are cursed
Maybe you and I are one
Thats the universe
Around, around

And lightning comes and lightning goes
And it�s all the same to me
Let it in
�Cause I want you so
I can hardly breathe and release
Into a thousand pieces
I have broke into
Over you
Kill the flames at dawn,
But I keep burning on and on and on

It�s what you always wanted
It�s what you always wanted
It�s what you always wanted
Otros videos de esta canción
    0 exhibiciones
      • ½ Tono
      • A
      • Bb
      • B
      • C
      • Db
      • D
      • Eb
      • E
      • F
      • F#
      • G
      • Ab
    • Agregar a la lista

    Afinação da cifra

    Afinador online

      Ops (: Contenido disponible solo en portugués.
      OK