Cifra Club

Graduation

Third Eye Blind

Cifrado: Principal (guitarra y guitarra eléctrica)
Selo Cifra Club: esta cifra foi revisada para atender aos critérios oficiais da nossa Equipe de Qualidade.
tono: A
--------------------------------------------------------------------------------
Opening Riff/Chorus                
---------------------------------------------|--9p5-------5-------------5-----
----9--5--9----5--9--5--9---5----------------|--------9------9p5----9---------
----8--5--8----5--8--5--8---5----------------|--------------------------------
----7--5--7----5--7--5--7---5h7p-------------|--------------------------------
-5--------------------------5h7p-------------|--------------------------------
-5--------------------------5h7p-------------|--------------------------------
    DONT PICK JUST PRESS         back to beg.   CAN  I       GRADUATE ??!!    

Verse

--0----0----------------------10--10-|--0---0---------------------0--|--------
--0----0----------------------10--10-|--0---0---------------------0--|--------
--x----x-----------13--13-13--13--13-|--x---x--------------5--5-5-x--|--------
-12---12---12--x---12--12-12--12--12-|-12--12--12---12--x--5--5-5-7--|--------
-12---12---12--x---10--10-10--10--10-|-12--12--12---12--x--5--5-5-5--|--------
-12---12---12--x---10--10-10--10--10-|-12--12--12---12--x--5--5-5-5--|--------
                                                                              

------------------------------|-----------------------------------------------
------------------------------|-----------------------------------------------
------------------------------|-----------------------------------------------
-12--12---12-12--8-8-8-8-7p0--|-----------------------------------------------
-12--12---12-12--8-8-8-8-7p0--|-----------------------------------------------
-12--12---12-12--8-8-8-8-7p0--|-----------------------------------------------
 go on fade out before i get... stuck  *return to intro on "stuck"            



Solo
-----------------------12----|------------------|--------------------0-0-0-0--
-----------------------12----|------------------|--------------------0-0-0-0--
-----------9----9h10---10b---|10bbbbbbbbbbbbbbb-|-------10b11-10p9------------
-9----9----9----9------------|------------------|-10---------------9----------
-9----9----9----9h11---------|------------------|----9------------------------
-9----9----9----9--------999-|------------------|-----------------------------
                                                                   

-------------|------12v--14-16-14-16b18r16-14-12h14vvvr12-14-16-14-16b17r16---
-------------|--/14---------------------------------|-------------------------
-10-10-10-10-|--------------------------------------|-------------------------
-------------|--------------------------------------|-------------------------
-------------|--------------------------------------|-------------------------
-------------|--------------------------------------|-------------------------
                                                                              

-14p12-------|-0-------------0----------|------12-14-16b17r16--14-12b14r12----
-------14----|-0-------------0----14\---|-/14------------------------------14-
-------------|-------9b10r9-------------|-------------------------------------
-------------|--------------------------|-------------------------------------
-------------|--------------------------|-------------------------------------
-------------|--------------------------|-------------------------------------
                                                                              

-12--14-16-14-16b17r16--14p12--------------------14---------------------------
-------------------------------14--17b19vvvvv----17--------14-16--------------
------------------------------------------------------------------------------
------------------------------------------------------------------------------
------------------------------------------------------------------------------
------------------------------------------------------------------------------
                                                    x11                       

------------------------|---------------------------|-------------------------
--16b18-----------------|---------------------------|-------------------------
------------------------|---------------------------|-------------------------
---------------------/12|-0-------------------------|-xxxx-\\\\\--------------
------------------------|-0-------------------------|-xxxx-\\\\\--------------
------------------------|-0-------------------------|-------------------------
  w/delay                 no delay <<<<
Otros videos de esta canción
    19 exhibiciones
      • ½ Tono
      • A
      • Bb
      • B
      • C
      • Db
      • D
      • Eb
      • E
      • F
      • F#
      • G
      • Ab
    • Agregar a la lista

    Afinação da cifra

    Afinador online

      Ops (: Contenido disponible solo en portugués.
      OK