Cifra Club

Never Let You Go

Third Eye Blind

Cifrado: Principal (guitarra y guitarra eléctrica)
Selo Cifra Club: esta cifra foi revisada para atender aos critérios oficiais da nossa Equipe de Qualidade.
tono: E
Pra entender direito, essa música precisa ser bem ouvida.
Mas eu coloquei ela em ordem aqui.

Guitarra Riff 1 

e|--------------------------------------------------------|----------------
B|--------------------------------------------------------|----------------
G|--9------------9-------------9------------9-------------|----------------
D|--9--9--7-7----9--9--7-7-7-x-9--9--7-7----9--9--7-7-7---|----------------
A|--7--9--7-7----7--9--7-7-7-x-7--9--7-7----7--9--7-7-7---|----------------
E|-----7--5-5-------7--5-5-5-x----7--5-5-------7--5-5-5---|----------------


Guitarra Riff 2 (distorção): Repete 2X

e|------------------------------------------|------------------------------
B|------------------------------------------|------------------------------
G|-11b13r11-9----------11b13r11-9-----------|------------------------------
D|------------11-(11)-------------11-(11)-9-|------------------------------
A|------------------------------------------|------------------------------
E|------------------------------------------|------------------------------


Pré-Refrão 3X

e|----------------------------|--------------------------------------------
B|----------------------------|--------------------------------------------
G|-13-13-9--9-----13-13-9--11-|--------------------------------------------
D|----------------------------|--------------------------------------------
A|----------------------------|--------------------------------------------
E|----------------------------|--------------------------------------------


Refrão:

e|-------------------------------------------------------------------------|
B|----------10-10-9-9-7---------------10-10-------------------10-10-9-9-7--|
G|--9-------9--9--9-9-6--x--9-9-------9--9--9-9----x--9-------9--9--9-9-6--|
D|--9--9-9--7--7--7-7-4--x--9-9--9-9--7--7--9-9-9--x--9--9-9--7--7--7-7-4--|
A|--7--9-9---------------x--7-7--9-9--------7-7-9--x--7--9-9---------------|
E|-----7-7---------------x-------7-7------------7--x-----7-7---------------|


Riff 1 / Riff 2 2x
Pré-Refrão
Refrão
Riff 1 e Riff 2 1x


Interlude: 6x e depois da 2ªx entra o riff abaixo.

e|-------------------------------------------------------------------------
B|-------------------------------------------------------------------------
G|--9-9-9-9-9-9------------------------------------------------------------
D|--9-9-9-9-9-9--9-9-9-9-9-9--7-7-7----------------------------------------
A|--7-7-7-6-6-6--9-9-9-9-9-9--7-7-7----------------------------------------
E|---------------7-7-7-7-7-7--5-5-5----------------------------------------


Riff: Repete 2x

e|---------------------------------------------------|---------------------
B|---------------------------------------------------|---------------------
G|-11-11-11-11-11-11-11-11-11-11-11-11-11-13-11----9v|---------------------
D|---------------------------------------------------|---------------------
A|---------------------------------------------------|---------------------
E|---------------------------------------------------|---------------------


Riff 1 4x sozinho e entra e Riff 2 3x


Refrão: Dedilhado pela Guitarra 2 por 4x. Depois entra a Guitarra 1 tocando
o Refrão acima mais 2x.

e|--------------------------------------------|----------------------------
B|-------12------------12-------12-12-------12|----------------------------
G|----13----13------13----13-14-------14-13---|----------------------------
D|-14------------16---------------------------|----------------------------
A|--------------------------------------------|----------------------------
E|--------------------------------------------|----------------------------

Riff 1 / Riff 2 2x
E a música acaba tocando-se o Riff 1 direto.
Otros videos de esta canción
    100 exhibiciones
      • ½ Tono
      • A
      • Bb
      • B
      • C
      • Db
      • D
      • Eb
      • E
      • F
      • F#
      • G
      • Ab
    • Agregar a la lista

    Afinação da cifra

    Afinador online

      Ops (: Contenido disponible solo en portugués.
      OK