Cifra Club

Now I Dont Know

Third Eye Blind

Cifrado: Principal (guitarra y guitarra eléctrica)
Selo Cifra Club: esta cifra foi revisada para atender aos critérios oficiais da nossa Equipe de Qualidade.
tono: C
Intro:
E|-----0-----0-----0--------0------0-----0---|
B|---1---1-----1----------1---1------1-------|
G|---------0-----0---------------2-----2-----|
D|----------------------3--------------------|
A|-3-----------------------------------------|
E|-------------------------------------------|

Verse 1:
Play Intro

Pre-Chorus:
E|-----3-----3-----3-------3-----3-----3---------3-----3-----3-----------|
B|---3---3-----3---------3---3-----3-----------3---3-----3---------------|
G|---------0-----0-------------2-----2---------------0-----0--------2~---|
D|-2-------------------0---------------------2--------------------0------|
A|-----------------------------------------------------------------------|
E|-----------------------------------------------------------------------|

Chorus:
E|-0000-1111---|
B|-1111-1111---|
G|-0000-2222---|
D|-2222-3333---|
A|-3333-3333---|
E|------1111---|

Verse 2:
Play Verse 1

Repeat Pre-Chorus:

Repeat Chorus:

Bridge:
E|-0000-3333-1111---|
B|-1111-3333-1111---|
G|-2222-0000-2222---| 2x
D|-2222-0000-3333---|
A|-0000-2222-3333---|
E|------3333-1111---|

Repeat Pre-Chorus:

Repeat Chorus:

Last Chord:
E|-0~---|
B|-1~---|
G|-0~---|
D|-2~---|
A|-3~---|
E|------|
Otros videos de esta canción
    0 exhibiciones
      • ½ Tono
      • A
      • Bb
      • B
      • C
      • Db
      • D
      • Eb
      • E
      • F
      • F#
      • G
      • Ab
    • Agregar a la lista

    Afinação da cifra

    Afinador online

      Ops (: Contenido disponible solo en portugués.
      OK