Cifra Club

Semi-Charmed Life

Third Eye Blind

Cifrado: Principal (guitarra y guitarra eléctrica)
Selo Cifra Club: esta cifra foi revisada para atender aos critérios oficiais da nossa Equipe de Qualidade.
tono: G
Intro:
G  D  C

Guitar 2
e|-------|
B|-3-1-0-|
G|-------|

Verse 1:
                     G    
I'm packed and I'm Holding, I'm smiling,
       D                            C
She's living, she's golden and she lives for me
                              G
She says she lives for me. Ovation.
              D
She's got her own motivation
C
She comes around and she goes down on me
G                D
And I make her smile like a drug for you
C
Do ever what you want to do
             G
Coming over you
           D
Keep on smiling, what we go through
C
One stop to the rhythm that divides you
G/D/C...
And I speak to you like the chorus to the verse
Chop another link like a coda with a curse
And I come on like a freak show takes the stage
We give them the games we play, she said

Chorus:
G/D/C...
I want something else
To get me through this
Semi-charmed kind of life
I want something else
I'm not listening when you say
Goodbye

Intro

Verse 2:(Clean/Acoustic)

Guitar 1
E|------------------------------------------------|
B|-----12----12-10----13------13----13-12-10------|
G|-12------12-------12------12----12----------12--|
  "-,it was rose.  I was taking-"

E|------------------------------------------------|
B|------12----12-10--------10-8---8-8---8-8h10----|
G|---------12-------12-9--------9-----------------|

E|------------------------------------------------|
B|-----12----12-10----13------13---13-13-12-10----|
G|-12-----12-------12------12----12------------12-|

E|------------------------------------------------|
B|-----12----12-10--------10-8--------------------|
G|-12-----12-------12-9--------9/---5h7p5-4-5p4-0-|

The sky it was gold, it was rose
I was taking sips of it through my nose
And I wish I could get back there
Some place back there
Smiling in the pictures you would take
Doing crystal myth will lift you up until you break
It won't stop I won't come down
I keep stock with a tick-tock rhythm and a bump for the drop
And then I bumped up
I took the hit that I was given
Then I bumped again
And then I bumped again

G/D/C...
How do I get back there to
The place where I dell asleep inside you?
How do I get myself back to
The place where you said

Chorus

Verse 3:
G/D/C... (dedilhado)
I believe in the sand beneath my toes
The beach gives a feeling
An earthy feeling 
I believe in the faith that grows
And the four right chords can make me cry
When I'm with you I feel like I could die
And that would be all right
All right

D/C/D/C...
When the plance came in
She said she was crashing
The velvet it rips in the city we tripped
On the urge to feel alive
But now I'm struggling to survive
The days you were wearing
That velvet dress
You're the priestess
I must confess
Those little red panties
They pass the test
Slide up around the belly
Face down on the matress

G/D/C/D
One now you hold me
And we're broken
Still it's all that I want to do

G/D/C...
Feel myself with a head made of the ground
I'm scared but I'm not coming down
No, no, no
And I won't run for my life
She's got her jaws just locked now in smile
But nothing is all right
All right

Chorus

Pre-Outro:

Goodbye...
G|------0-----0-----2-----------0-----0-----2--|
D|----2-----0-----2-----------2-----0-----2----|
A|--3-----2-----0-----------3-----2-----0------|
E|---------------------------------------------|

G|------0-----0-----2--|
D|----2-----0-----2----|
A|--3-----2-----0------|
E|---------------------|

G/D/C...
Good Bye

Intro

G/D/C...
The sky it was gold, it was rose
I was taking sips of it through my nose
And I wish I could get back there
Some place back there

Intro

Outro:
G|------0-----0---2--|
D|----2-----0-----2--|
A|--3-----2-------0--|
E|-------------------|
Otros videos de esta canción
    435 exhibiciones
      • ½ Tono
      • A
      • Bb
      • B
      • C
      • Db
      • D
      • Eb
      • E
      • F
      • F#
      • G
      • Ab
    • Agregar a la lista

    Afinação da cifra

    Afinador online

      Ops (: Contenido disponible solo en portugués.
      OK