Enviar cifraEntrar

I Hate Everything About You

Three Days Grace

Acordes: Principal
reproducciones 6.493
Tono: A
Afinação Drop D: D A D G B E 

Intro:


E|--------------------------------------------------|
B|--------------------------------------------------|
G|-------6~~~---------6~~~--------6~~~--------6~~~--|
D|----4--6~~~-------4-6~~~------4-6~~~------4-6~~~--|
A|----4-------------4-----------4-----------4-------|
D|-4-----------0-4---------0-4---------0-4----------|


E|--------------------------------------------------|
B|--------------------------------------------------|
G|------4-6~~~------4-6~~~------4-6~~~------4-6~~~--|
D|------4-6~~~------4-6~~~------4-6~~~------4-6~~~--|
A|---0-----------0-----------0-----------0----------|
D|-0-----------0-----------0-----------0------------|


Verso 1:

Fig. 1


E|--------------------------------------------------|
B|--------------------------------------------------|
G|--------6~~~--------6~~~--------6~~~--------6~~~--|
D|------4-6~~~------4-6~~~------4-6~~~------4-6~~~--|
A|------4-----------4-----------4-----------4-------|
D|-0-4---------0-4---------0-4---------0-4----------|


E|--------------------------------------------------|
B|--------------------------------------------------|
G|------4-6~~~------4-6~~~------4-6~~~------4-6~~~--|
D|------4-6~~~------4-6~~~------4-6~~~------4-6~~~--|
A|---0-----------0-----------0-----------0----------|
D|-0-----------0-----------0-----------0------------|


F#5                         D5
    Every time we lie awake ... after every hit we take
F#5                         D5
    Every feeling that i get ... but i haven’t missed you yet
F#5                         D5
    Every roomate kept awake ... by every sigh and scream we make
F#5                            D5
    All the feelings that i get ... but i still don’t miss you yet



E|--------------------------------------------0-----|
B|--------------------------------------------3-----|
G|--------------------------------------------2-----|
D|-2--------------------0---------------------0-----|
A|-2--------------------0---------------------------|
D|-2--------------------0---------------------------|


   only when i stop to think about it

Refrão 2x:


E|--------------------------------------------------|
B|--------------------------------------------------|
G|-6--6------7--7------9-9-9-9-9-9------4-4-4-4-4-4-|
D|-4--4------0--0------7-7-7-7-7-7------2-2-2-2-2-2-|
A|-4--4------0--0------7-7-7-7-7-7------2-2-2-2-2-2-|
D|-4--4------0--0------7-7-7-7-7-7------2-2-2-2-2-2-|


E|-------------------------------------------------------------|
B|-------------------------------------------------------------|
G|-6-6-6-6-6-6------7-7-7-7-7-7-----4-4-4-4-4-4----------------|
D|-4-4-4-4-4-4------0-0-0-0-0-0-----2-2-2-2-2-2------7---6-----|
A|-4-4-4-4-4-4------0-0-0-0-0-0-----2-2-2-2-2-2------7---6-----|
D|-4-4-4-4-4-4------0-0-0-0-0-0-----2-2-2-2-2-2------7---6~~~--|


F#5    D5         A5         E5
    I     Hate    Everything About You
F#5    D5      E5     A5   G#~~
    Why    Do  I      love you

Fig. 1 w/ this fill


E|-------------------------------------------------------0---------|
B|---------------------------------------------------3-----3---3---|
G|-------------------------------------------------6---6-----6-----|
D|-----------------------------------------------------------------|
A|-----------------------------------------------------------------|
D|-----------------------------------------------------------------|


2º Verso:

F#5                         D5
    Every time we lie awake ... after every hit we take
F#5                         D5
    Every feeling that i get ... but i haven’t missed you yet

Riff:


E|-----------------------------------------------------------------|
B|-15--14~~~~~~-----15-14-------------------------15-14------------|
G|------------------------11~~~~~-----------------------11~~~~~----|
D|-----------------------------------------------------------------|
A|-----------------------------------------------------------------|
D|-----------------------------------------------------------------|

   A...Wake        We Take ...                    I Get ...

(Pré-Refrão)
(Refrão)

Ponte:

D5                     E5                  F#5                   E5

Guitarra 1

E|---------------------------------------------------------------------------------|
B|---9--9--9-----10--10---10-----12---12-------------------------------------------|
G|---------------------------------------------------------------------------------|
D|---6--6--6------7---7----7------9----9-------------------------------------------|
A|---------------------------------------------------------------------------------|
D|---------------------------------------------------------------------------------|


Guitarra 2

E|---------------------------------------------------------------------------------|
B|-9-9-9-10-10-10-12-12-9-9-9-10-10-10-12-12-9-9-9-10-10-10-12-12-9-9-9-10p9-------|
G|---------------------------------------------------------------------------9-----|
D|---------------------------------------------------------------------------------|
A|---------------------------------------------------------------------------------|
D|---------------------------------------------------------------------------------|


D5                     E5                  F#5                   E5

Guitarra 1

E|---------------------------------------------------------------------------------|
B|-------------------------------------------7-7-7--7--7--7--7--7------------------|
G|-7-7-7--7--7--7--7--7-9-9-9--9--9--9--9--9----------------------9-9-9--9-9-9-----|
D|-----------------------------------------------------------------------------11--|
A|---------------------------------------------------------------------------------|
D|---------------------------------------------------------------------------------|


Guitarra 2

E|---------------------------------------------------------------------------------|
B|-9-9-9-10-10-10-12-12-9-9-9-10-10-10-12-12-9-9-9-10-10-10-12-12-9-9-9-10p9-------|
G|---------------------------------------------------------------------------9-----|
D|-----------------------------------------------------------------------------11--|
A|---------------------------------------------------------------------------------|
D|---------------------------------------------------------------------------------|


Guitarra 3

E|---------------------------------------------------------------------------------|
B|---------------------------------------------------------------------------------|
G|-9~~~~~~~~~~~~~~~~--9~~~~~~~~~~~~~~~~~~~~~-9~~~~~~~~~~~~~~~~-9~~~~~~~~~~~~~~~----|
D|---------------------------------------------------------------------------------|
A|---------------------------------------------------------------------------------|
D|---------------------------------------------------------------------------------|


E|--------------------------------------------------|
B|--------------------------------------------------|
G|-------6~~~---------6~~~--------6~~~--------------|
D|----4--6~~~-------4-6~~~------4-6~~~------4-------|
A|----4-------------4-----------4-----------4-------|
D|-4-----------0-4---------0-4---------0-4----------|
  • 1
  • 2
  • 3
  • 4
  • 5
  • 6
  • 7
  • 8
  • 9
  • 10
  • 11
  • 12

    0 comentarios

      mostrar mas comentarios

      ¿Conseguiste tocar?

      47tocaron1aún no

      ¡Grave un vídeo tocando I Hate Everything About You y envie para nosotros!

      00:00 / 00:00
      outros vídeos desta música
      repetirqualidadeautomática
      • automática
      Outro vídeos desta música
        00:00 / 00:00
        automática
        • automática
        cerrarplay/pause subir/bajar velocidad
          acordes
          cerrar
          OK
          Feedback