Cifra Club

My Soul

Thrice

Tablatura: Principal (guitarra)
Tono: G
[Intro] Gm  F  Gm  Dm  
        Gm  F  Gm  F  Gm

E|--------------------------------------------------------|
B|------11---11-10-----10---------------------------------|
G|--6/7----7-------7-7----7----------12---12-10-----10----| (4x)
D|-------------------------------7/8----8-------8-8----8--|
A|--------------------------------------------------------|
E|--------------------------------------------------------|

F    Gm  F  Gm
Are you ready?
Bb        Gm               F       Gm
Are you alive to all that moves in me?
F    Gm  F  Gm
Are you steady?
Bb        Gm                    Eb   
Are you alarmed that I am incomplete?

              C       F
Are you ready for my soul?
              Eb
What if I'm broken from the start?
Gm                    F    Eb
And what if I never heal?

              C       F
Are you ready for my soul?
           Eb
What if I open up my heart?
      C          F                      Gm
And somehow we stumble into something real?

( Gm  F  Gm  Dm )
( Gm  F  Gm  F  Gm )

E|--------------------------------------------------------|
B|------11---11-10-----10---------------------------------|
G|--6/7----7-------7-7----7----------12---12-10-----10----| (4x)
D|-------------------------------7/8----8-------8-8----8--|
A|--------------------------------------------------------|
E|--------------------------------------------------------|

Gm  Dm     Gm   Dm
Are you ready?
          Gm      F              Gm
Are you aware of all that's underneath?
Dm  Gm   Dm  Gm
Are you steady?
Dm        Gm           F             Eb
Are you awake to what our love could be?

                      F
Are you ready for my soul?
              Eb
What if I'm broken from the start?
Gm                    F    Eb
And what if I never heal?

              C       F
Are you ready for my soul?
           Eb
What if I open up my heart?
      C          F                      Gm
And somehow we stumble into something real?

                      F
Are you ready for my soul?
              Eb
What if I'm broken from the start?
Gm                    F    Eb
And what if I never heal?

              C       F
Are you ready for my soul?
           Eb
What if I open up my heart?
      C          F                      Gm
And somehow we stumble into something real?

( Bb  F  Gm )
( Bb  F  Gm )
Acordes para:
    Colaboración y revision:
    • Gilson Feitosa

    0 comentarios

    mostrar más comentarios

    ¿Conseguiste tocar?

    0 tocaron 0 aún no

    ¡Graba un vídeo tocando My Soul y envianoslo!

    00:00 / 00:00
    outros vídeos desta música
    repetir qualidade Automático
    Outros vídeos desta música
    00:00 / 00:00
    Automático
    OK