Cifra Club

Profana

Tianastácia

Cifrado: Principal (guitarra y guitarra eléctrica)
Selo Cifra Club: esta cifra foi revisada para atender aos critérios oficiais da nossa Equipe de Qualidade.
tono: D
Intro: (D  C)

Toca-se 2X só a guitarra base

Guitarra solo
E|-------------------------------------|
B|-------------------------------------|
G|---7p5-5h7--7------5-7p5-5h7--7--5---|
D|---------------5---------------------|
A|-------------------------------------|
E|-------------------------------------|
Toca-se 2x na introdução e continua tocando no verso.

 D          C          D            C
Eu não vejo graça no que você fala
    D             C               D         C
Nem tão pouco preocupado com o que vai pensar
 D       C                   D         C
Estamos distantes das nossas idéias
 C                    D             C
E já não me preocupo em perder ou ganhar


Refrão
G                  D      C
Não sei se ainda estou 
G                D      C
Nem sei se eu já sai
    A              G               D
Então faça o seu caminho e me deixe partir
E|-----------------------------|
B|-----------------------------|
G|--5h7p5h7-5h7p5h7---5-7-5----|
D|-----------------------------|
A|-----------------------------|
E|-----------------------------|
    A           G                      D         C
Então faça o seu caminho e me deixe partir
(O final taca-se variando as batidas em abafadas e não abafadas mas sempre em Dó)


Verso 2

Guitarra solo
E|-------------------------------------|
B|-------------------------------------|
G|---7p5-5h7--7------5-7p5-5h7--7--5---|
D|--------------5----------------------|
A|-------------------------------------|
E|-------------------------------------|
D         C               D              C
Todo dia é festa pra quem conhece você
  D      C              D          C           
Todo dia é dia pra quem sabe viver
D      C            D                 C
Todo amor vale apena até o meu por você
D          C              D            C
Toda dor é profana toda dor é prazer

D              C
Toda noite é escura
       D         C
Branca, estrela poder
D                  C 
Toda noite bom dia
             D
Eu que amo você

Repete refrão
Otros videos de esta canción
    40.352 exhibiciones
      • ½ Tono
      • A
      • Bb
      • B
      • C
      • Db
      • D
      • Eb
      • E
      • F
      • F#
      • G
      • Ab
    • Agregar a la lista

    Afinación de cifrado

    Afinador online

      OK