Cifra Club

Pagode Em Brasília

Tião Carreiro e Pardinho

Cifrado: Principal (guitarra y guitarra eléctrica)
tono: E
|Intro|  D  A7  D  A7  D  G  A7  D  A7  D  A7  D

E|---10-21----10-12----10-15----10-14------10-17----10-12----10-15----10-14---|
B|-10---22--10---14--10---17--10---15----10---19--10---14--10---17--10---15---|
G|----------------------------------------------------------------------------|
D|----------------------------------------------------------------------------|
A|----------------------------------------------------------------------------|
E|----------------------------------------------------------------------------|

E|---10-17----10-19----10-21----10-22---------------------------|
B|-10---19--10---20--10---22--10---19---------------------------|
G|--------------------------------------------------------------|
D|--------------------------------------------------------------|
A|--------------------------------------------------------------|
E|--------------------------------------------------------------|

 D
Quem tem mulher que namora
                      A7
Quem tem burro empacador

Quem tem a roça no mato
                       D
Me chama que jeito eu dou
                   D7
Eu tiro a roça do mato
                G    D G
Sua lavoura melhora
  A7
E o burro empacador
                   D
Eu corto ele na espora
                   A7
E a mulher namoradeira
                             D  A7 D 
Eu passo um couro e mando embora

( A7  D  A7  D  G  A7  D )
( A7  D  A7  D )

 D
Tem prisioneiro inocente
                    A7
No fundo de uma prisão

Tem muita sogra encrenqueira
                      D
E tem violeiro embrulhão
                     D7
Pros prisioneiro inocente
                G   D G
Eu arranjo advogado
 A7
E a sogra encrequeira
                  D
Eu dou de laço dobrado

E os violeiro embrulhão
          A7            D    A7 D
Com meus verso tão quebrado

( A7  D  A7  D  G  A7  D )
( A7  D  A7  D )

 D
Bahia deu Rui Barbosa
                  A7
Rio Grande deu Getúlio

Em Minas deu Juscelino
                      D
De São Paulo eu me orgulho
                  D7
Baiano não nasce burro
                       G     D G
Gaúcho é o rei das cochilhas
 A7
Paulista ninguém contesta
                      D
É o brasileiro que brilha

Quero ver cabra de peito
     A7             D     A7  D 
Pra fazer outra Brasília

( A7  D  A7  D  G  A7  D )
( A7  D  A7  D )

 D
No estado de Goiás
                   A7
Meu pagode está mandando

O Bazar do Valdomiro
                   D
Em Brasília é soberano
                         D7
O repique da viola balanceia
          G  D G
O chão goiano
   A7 
Vou fazer a retirada
                        D
E despedir dos paulistanos

Adeus que eu já vou embora
       A7           D    A7  D
Que Goiás ta me chamando
Composición de Lourival dos Santos / Teddy Vieira
7.317 vistas
    • ½ Tono
    • A
    • Bb
    • B
    • C
    • Db
    • D
    • Eb
    • E
    • F
    • F#
    • G
    • Ab
  • Agregar a la lista

    0 comentarios

    Ver todos los comentarios

    ¿Lograste tocar?

    91 Tocaron 11 Aún no

    ¡Graba un video tocando Pagode Em Brasília y envíanoslo!

    00:00 / 00:00
    Outros vídeos desta música
    Repetir Calidad Automático
    Outros vídeos desta música
    00:00 / 00:00
    Automático
    OK