Cifra Club

Mapa-Mundi

Tiê

Cifrado: Principal (guitarra y guitarra eléctrica)
tono: G
Intro: G  C  G  C

E|-----------3------2--0--3------------3--2--0------0-------------|
B|--------3--3------------3---------3---------------1-----1--3----|
G|-----0-----0------------0--0----------------------0--0----------|
D|--------------------------------------------------2-------------|
A|--------------------------------------------------3-------------|
E|--3--------3------------3---------------------------------------|

--------0---------0--2~-0--3----|
-----3-----3---------------3----|
--0------------------------0----|
--------------------------------|
--------------------------------|
---------------------------3----|

G                         C
Me escreva uma carta sem remetente
G                      C
Só o necessário e se está contente
G                   C
Tente lembrar quais eram os planos
G                      C
Se nada mudou com o passar dos anos
G                     Em    C       G
E me pergunte o que será do nosso amor?

(  G  C  G  C  G  Em  D  )

G                    C
Ah! Se eu pudesse voltar

( G  C  Em  C )

( G  C  Em  D )

G                    C
Descreva pra mim sua latitude
G                        C
Que eu tento te achar no mapa-múndi
G                 C
Ponha um pouco de delicadeza
G                       C
No que escrever e onde quer que me esqueças
G                        Em    C       G
E eu te pergunto o que será do nosso amor?

( G  C  G  C  G  Em  D )

G            Em       C     D
Ah! Se eu pudesse voltar atrás

( G  C  G  C  G  C  G  C  G  Em  D )

G            Em       C  D G
Ah! Se eu pudesse voltar.
Composición de Thiago Pethit
Colaboración y revisión:
  • Eduardo Pereira
  • Felipe Abib
90 vistas
    • ½ Tono
    • A
    • Bb
    • B
    • C
    • Db
    • D
    • Eb
    • E
    • F
    • F#
    • G
    • Ab
  • Agregar a la lista

    0 comentarios

    Ver todos los comentarios

    ¿Lograste tocar?

    10 Tocaron 0 Aún no

    ¡Graba un video tocando Mapa-Mundi y envíanoslo!

    00:00 / 00:00
    Outros vídeos desta música
    Repetir Calidad Automático
    Outros vídeos desta música
    00:00 / 00:00
    Automático
    OK