Cifra Club

Passarinho

Tiê

Cifrado: Principal (guitarra y guitarra eléctrica)
tono: A
E|----0---0---0---------0---0---0-----------
B|--1---1---1---1--3--0---0---0---0--3------
G|------------------------------------------     (2X)
D|------------------------------------------
A|------------------------------------------
E|------------------------------------------

E|----0---0---0---------0---0---0-----------
B|--1---1---1---1--3--0---0---0---0--3------
G|------------------------------------------     (2X)
D|------------------------------------------
A|------------------------------------------
E|------------------------------------------

Como um brotinho de feijão foi que um dia eu nasci,
Despertei cai no chão e com as flores cresci.

E|----1----1---1---1----1---1---1----1------
B|--3---3----3---3----2---2---2---2---------
G|------------------------------------------
D|------------------------------------------
A|------------------------------------------
E|------------------------------------------

E|----1----1---1---1----1---1---1-----------
B|--3---3----3---3----2---2---2---2---------
G|----------------------------------2-------
D|------------------------------------------
A|------------------------------------------
E|------------------------------------------

E decidi que a vida logo me daria tudo
Se eu não deixasse que o medo me apagasse no escuro.

E|----0---0---0---------0---0---0-----------
B|--1---1---1---1--3--0---0---0---0--3------
G|------------------------------------------     (2X)
D|------------------------------------------
A|------------------------------------------
E|------------------------------------------

E|----0---0---0---------0---0---0-----------
B|--1---1---1---1--3--0---0---0---0--3------
G|------------------------------------------    (2X)
D|------------------------------------------
A|------------------------------------------
E|------------------------------------------

Quando mamãe olhou pra mim, ela foi e pensou
Que um nome de passarinho me encheria de amor

E|----1----1---1---1----1---1---1----1------
B|--3---3----3---3----2---2---2---2---------
G|------------------------------------------
D|------------------------------------------
A|------------------------------------------
E|------------------------------------------

E|----1----1---1---1----1---1---1---- ------
B|--3---3----3---3----2---2---2---2---------
G|----------------------------------2-------    (2X)
D|------------------------------------------
A|------------------------------------------
E|------------------------------------------

Mas passarinho se não bate a asa logo pia
Eu que tinha um nome diferente já quis ser Maria

E|----0---0---0---------0---0---0-----------
B|--1---1---1---1--3--0---0---0---0--3------
G|------------------------------------------    (2X)
D|------------------------------------------
A|------------------------------------------
E|------------------------------------------

Ah, e como é bom voar
Composición de Tie
Colaboración y revisión:
  • Italo Batista
114 vistas
    • ½ Tono
    • A
    • Bb
    • B
    • C
    • Db
    • D
    • Eb
    • E
    • F
    • F#
    • G
    • Ab
  • Agregar a la lista

    0 comentarios

    Ver todos los comentarios

    ¿Lograste tocar?

    12 Tocaron 0 Aún no

    ¡Graba un video tocando Passarinho y envíanoslo!

    00:00 / 00:00
    Outros vídeos desta música
    Repetir Calidad Automático
    Outros vídeos desta música
    00:00 / 00:00
    Automático
    OK