Cifra Club

El Laberinto Del Minotauro

Tierra Santa

Cifrado: Versão 2 (guitarra y guitarra eléctrica)
tono: C
E|-------------------------------------------------------------|
B|-------------------------------------------------------------|
G|-------------------------------------------------------------|
D|-9-9-9-----/7-7-7-7-----/9-9-9----/7-7-7-7/9-9-9-7-5-7-7-5-5-|
A|-9-9-9-----/7-7-7-7-----/9-9-9----/7-7-7-7/9-9-9-7-5-7-7-5-5-|
E|-7-7-7-7777/5-5-5-5-5555/7-7-7-777/5-5-5-5/7-7-7-5-3-5-5-3-3-|

E|----------------------------|
B|----------------------------|
G|----------------------------to| do esto 5 veces..
D|-5-7-7-3-3-5-7/-5-/3~~~~----|
A|-5-7-7-3-3-5-7/-5-/3~~~~----|
E|-3-5-5-1-1-3-5/-3-/1~~~~----|

y luego sigue

E|-----------------------------------------|
B|-----------------------------------------|
G|-----------------------------------------|
D|-7~~~~~~-5~~~~-7--------7-5--------------|
A|-7~~~~~~-5~~~~-7--5-7-9-----10-9-5-9-----|
E|-5~~~~~~-3~~~~-5-------------------------|

un hambre atros recorre el alma de un animal.......

E|------------------------------|
B|------------------------------|
G|--------------------------------|
D|-7-------7------7-------7-------7-/-5-------5-------5--|
A|-7-------7------7-------7-------7-/-5-------5-------5--|
E|-5-555p| m-5-555pm--555pm-5-555pm-5-/-3-333pm-3-333pm-3--

E|-----------------------------------------------------|
B|-----------------------------------------------------|
G|-----------------------------------------------------|
D|-5-----5---5-/-7-----7---7---------------------------|
A|-5-----5---5-/-7-----7---7---------------------------|
E|-3-333-3p| m-3-/-5-555-5pm-5-555pm---------------------


este ritmo se repite., y despues va...

D|--------7-5---------------------|
A|--5-7-9-----10-9-5-9-5----------|
E|--------------------------------|

E|-------------------------------------|
B|---------------------------------------|
G|-------------------------------------|
D|-5~~~-7------7-----------------7-5-----------5~~~--|
A|-5~~~-7------7-----------5-7-9-----10-9-5-9--5~~~--|
E|-3~~~-5-5555-5p| m-5555pm----------------------3~~~--

este es mi reino wooo hooooo..

E|-----------------------------------------------------|
B|-----------------------------------------------------|
G|-----------------------------------------------------|
D|-7----------9-9-/7-9-7-5-/3---------7~~~~5~~~-7~~~---|
A|-7----------9-9-/7-9-7-5-/3---------7~~~~5~~~-7~~~---|
E|-5-55555p| m--7-7-/5-7-5-3-/1-1111----5~~~~3~~~-5~~~---

D|--------7-5----------------------------------|
A|--5-7-9-----10-9-5-9-------------------------|
E|---------------------------------------------|

E|-------------------------------------------------|
B|-------------------------------------------------|
G|-------------------------------------------------|
D|-5-----5~~~~9-7-5-3------------------------------|
A|-5-----5~~~~9-7-5-3------------------------------|
E|-3-33333~~~~7-5-3-1--////-22222------------------|

esto va antes de solo..

E|---------------------------------------------------------|
B|---------------------------------------------------------|
G|---------------------------------------------------------|
D|-7~~~~--------------5~~~--------------7~~~~--------------|
A|-7~~~~--5-7-9-7-5-5-5~~~--5-7-9-7-5-5-7~~~~-5-7-9-5-5-5--|
E|-5~~~~--------------3~~~--------------5~~~~--------------|

E|---------------------------------------------|
B|----------------------------------------------|
G|----------------------------------------------|
D|-3~~5~~---------------------------------------|
A|-3~~5~~---------------------------------------|
E|-1~~3~~------777777-555555-22222-11111--------|

wooohoooooooooooo wooohoooooooo

casitoda la rola tiene los mismos acordes.pero acaba asi.

D|--9~~~~~~~~------|
A|--9~~~~~~~~------|
E|--7~~~~~~~~------|
Compositor não encontrado.
    • ½ Tono
    • A
    • Bb
    • B
    • C
    • Db
    • D
    • Eb
    • E
    • F
    • F#
    • G
    • Ab
  • Agregar a la lista

    0 comentarios

    Ver todos los comentarios

    ¿Lograste tocar?

    0 Tocaron 0 Aún no

    ¡Graba un video tocando El Laberinto Del Minotauro y envíanoslo!

    00:00 / 00:00
    Outros vídeos desta música
    Repetir Calidad Automático
    Outros vídeos desta música
    00:00 / 00:00
    Automático
    OK