Cifra Club

La Momia

Tierra Santa

Cifrado: Principal (guitarra y guitarra eléctrica)
tono: Em
Intro(bateria platillos y bajo)

riff1
E|----------------------------------------------|
B|----------------------------------------------|
G|-------9--------------------------------------|
D|-----9----------------------------------------|
A|---7------------------------------------------|
E|----------------------------------------------|
Un dia en Egipto murió un faraon
su vida y su cuerpo este mundo dejo

riff2
E|-----------------------------------------------|
B|-----------------------------------------------|
G|------5--------------7---------------9---------|
D|----5--------------7---------------9-----------|
A|--3--------------5---------------7-------------|
E|-----------------------------------------------|
y una tela cubrio  su rostro sagrado

riff especial
E|-----------------------------------------------|
B|-----------------------------------------------|
G|--------------2--------------------------------|
D|------2-------------3-----2--0--2--------------|
A|----2------2------2----------------------------|
E|--0------0------0------------------------------|

riff1 riff especial
Su alma el difunto no quiso salvar
riff1 riff especial
por eso su cuerpo no pudo llegar
riff2                              riff especial
A tocar el umbral, el umbral de otro mundo
riff2
A tocar el umbral, el umbtal de otro mundo

riff3 egipcio
E|------------------------------------------------|
B|----12-10-9-10-9--------------------------------|
G|--9--------------9--7--9h10p9----------7-9-9-7-7|
D|-------------------------------x2---10----------|
A|------------------------------------------------|
E|------------------------------------------------|

mientras la otra guitarra hace esto:riff acompañamiento
E|-------------------------------------------------|
B|-------------------------------------------------|
G|-------------------------------------------------|
D|-9---------9---------9-----9--x8-5---------5-----|
A|-7-7-7-7-7-7-7-7-7-7-7-7-7-7-----3-3-3-3-3-3-3-3-|
E|-------------------------------------------------|

E|-------------------------------------------------|
B|-------------------------------------------------|
G|-------------------------------------------------|
D|-----5-----5--7---------7---------7-----7--7-----|
A|-3-3-3-3-3-3--5-5-5-5-5-5-5-5-5-5-5-5-5-5--5-5-5-|
E|-------------------------------------------------|

E|-------------------------------------------------|
B|-------------------------------------------------|
G|-------------------------------------------------|
D|-----7---------7-----7---9---12-7-9--------------|
A|-5-5-5-5-5-5-5-5-5-5-5---7---10-5-7--------------|
E|-------------------------------------------------|

letra

E5               E5 
Y ahora esta dispuesto a viajar
E5                E5 
pero osiris tendra que juzgar
C5                            E5     G5   D5 
si su cuerpo hizo en vida su alma merecer

riff4 letra que sigue
E|-------------------------------------------------|
B|-------------------------------------------------|
G|-------------------------------------------------|
D|-9---------9---------9-----x4--5--7---9---------9|
A|-7-7-7-7-7-7-7-7-7-7-7-7-7-----3--5---7-7-7-7-7-7|
E|-------------------------------------------------|

E|----------------------|
B|----------------------|
G|----------------------|
D|---------9------x2----|
A|-7-7-7-7-7-7-7--------|
E|----------------------|

puente

C5                C5             D5      D5 
Condenado a vagar hasta el fin de los tiempos
C5                C5        B5       B5 
Encerrado en una tumba que un dia el forjó

Coro:
aqui no se exactamente cuantos 7 son  xD ahi uds lo sacan
E|--------------------------------------------------|
B|--------------------------------------------------|
G|--------------------------------------------------|
D|-9-------------------------------5--7-------------|
A|-7-7-7-7-7-7-7-7-7-7-7-7---------3--5-------------|
E|--------------------------------------------------|
Uoh oh oh oh                      tu destino la muerte cambio
uoh oh oh oh                      y en la momia ella te convirtio

uoh oh oh oh                      ahora tu eres el guardian
                                  de aquellos que como tu
                                                   B5  B5 
                                  quisieron ser inmortal

riff3 con riff acompañmaiento

Solo* (toy trabajando en él todavia falta)

Coro:

riff3 con riff acompañamiento

luego viene
E|--------------------------------------------------|
B|--------------------------------------------------|
G|--------------------------------------------------|
D|-2---7--5-3-2--7--5--3--2--7--5-3-2--7--5--3------|
A|-2---7--5-3-2--7--5--3--2--7--5-3-2--7--5--3------|
E|-0---5--3-1-0--5--3--1--0--5--3-1-0--5--3--1------|

se acaba con

riff3 egipcio
E|-----------------------------------------------------|
B|----12-10-9-10-9-------------------------------------|
G|--9--------------9--7--9h10p9----------7-9-9-7-7-----|
D|-------------------------------x3---10------------2--|
A|--------------------------------------------------2--|
E|--------------------------------------------------0--|


ese es mi aporte
simplemente decir que
AGUANTE EL METAL EN ESPAÑOL!!!
Composición de Tierra Santa
    • ½ Tono
    • Am
    • Bbm
    • Bm
    • Cm
    • C#m
    • Dm
    • Ebm
    • Em
    • Fm
    • F#m
    • Gm
    • G#m
  • Agregar a la lista

    0 comentarios

    Ver todos los comentarios

    ¿Lograste tocar?

    0 Tocaron 0 Aún no

    ¡Graba un video tocando La Momia y envíanoslo!

    00:00 / 00:00
    Outros vídeos desta música
    Repetir Calidad Automático
    Outros vídeos desta música
    00:00 / 00:00
    Automático
    OK