Cifra Club

Mi Tierra

Tierra Santa

Cifrado: Principal (guitarra y guitarra eléctrica)
tono: C#m
Imtro
E|-------------------------------------------------|
B|-7-5p0-7-5p0-7-5p0-7-5p0-5-4p0-5-4p0-5-4p0-5-4p0-|
G|-------------------------------------------------|
D|-------------------------------------------------|
A|-------------------------------------------------|
E|-------------------------------------------------|

E|----------------------------------------------|
B|-7-5p0-7-5p0-7-5p0-7-5p0-9p0-10p0-9p0-7p0-5p0-|
G|----------------------------------------------|
D|----------------------------------------------|
A|----------------------------------------------|
E|----------------------------------------------|

E|-------------------------------------------------|
B|-7-5p0-7-5p0-7-5p0-7-5p0-5-4p0-5-4p0-5-4p0-5-4p0-|
G|-------------------------------------------------|
D|-------------------------------------------------|
A|-------------------------------------------------|
E|-------------------------------------------------|

E|-------------------------------------------------|
B|-7-5p0-7-5p0-7-5p0-7-5p0-7-5p0-7-5p0-7-5p0-7-5p0-|
G|-------------------------------------------------|
D|-------------------------------------------------|
A|-------------------------------------------------|
E|-------------------------------------------------|

E|-------------------------------------------------|
B|-7-5p0-7-5p0-7-5p0-7-5p0-5-4p0-5-4p0-5-4p0-5-4p0-|
G|-------------------------------------------------|
D|-------------------------------------------------|
A|-------------------------------------------------|
E|-------------------------------------------------|

E|----------------------------------------------|
B|-7-5p0-7-5p0-7-5p0-7-5p0-9p0-10p0-9p0-7p0-5p0-|
G|----------------------------------------------|
D|----------------------------------------------|
A|----------------------------------------------|
E|----------------------------------------------|

E|-------------------------------------------------|
B|-7-5p0-7-5p0-7-5p0-7-5p0-5-4p0-5-4p0-5-4p0-5-4p0-|
G|-------------------------------------------------|
D|-------------------------------------------------|
A|-------------------------------------------------|
E|-------------------------------------------------|

E|-------------------------------------------------|
B|-00000000000000000000000000000000000000000000000-|
G|-------------------------------------------------|
D|-------------------------------------------------|
A|-------------------------------------------------|
E|-------------------------------------------------|

Letra
E|-------------------------------------------------------|
B|-------------------------------------------------------|
G|-----9-----9-----9-----9-----9-----9-----9-----9-----9-|
D|-----9-----9-----9-----9-----9-----9-----9-----9-----9-|
A|-77777-77777-77777-77777-77777-77777-77777-77777-77777-|
E|-------------------------------------------------------|

E|-----------------------------------------------------|
B|-----------------------------------------------------|
G|-----9-------7-------5-------2-------5-------7-----4-|
D|-----9-------7-------5-------2-------5-------7-----4-|
A|-77777---55555---33333---00000---33333---55555-----2-|
E|-----------------------------------------------------|

Y al amochser levantan sus copas………

E|-----------------------------------------------------|
B|-----------------------------------------------------|
G|-5--7------9-----9-9-7-5-7---------------------------|
D|-5--7------9-----9-9-7-5-7-9-9-9-10-9-7-9-9-9-10-9-7-|
A|-3--5--77777-77777-7-5-3-5-7-7-7-7--7-7-7-7-7-7--7-7-|
E|-----------------------------------------------------|

E|-----------------------------|
B|-----------------------------|
G|-5---7---9---7---5---------7-|
D|-5---7---9---7---5---------7-|
A|-3---5---7---5---3---------5-|
E|-----------------------------|

Coro
E|----------------------------------------|
B|----------------------------------------|
G|----9----7----5----7----9----7---5----2-|
D|----9----7----5----7----9----7---5----2-|
A|-7777-5555-3333-5555-7777-5555---3----0-|
E|----------------------------------------|

E|-----------------------------------|
B|-----------------------------------|
G|----9----7----5----7----9----7---5-|
D|----9----7----5----7----9----7---5-|
A|-7777-5555-3333-5555-7777-5555---3-|
E|-----------------------------------|

Interludio
E|----------------------------------------------------------------|
B|-12-10p0-12-10p0-12-10p0-12-10p0-12-10p0-12-10p0-15p0-14p0-12p0-|
G|----------------------------------------------------------------|
D|----------------------------------------------------------------|
A|----------------------------------------------------------------|
E|----------------------------------------------------------------|

E|---------------------------------------------------------------|
B|-12-10p0-12-10p0-12-10p0-12-10p0-12-10p0-12-10p0-8p0-10p0-12p0-|
G|---------------------------------------------------------------|
D|---------------------------------------------------------------|
A|---------------------------------------------------------------|
E|---------------------------------------------------------------|

E|---------------------------------------------------------------|
B|-12-10-12-13-13-12--12-10-12-13-12---------10-12-10------------|
G|-----------------------------------9-11-12----------12-11-12-9-|
D|---------------------------------------------------------------|
A|---------------------------------------------------------------|
E|---------------------------------------------------------------|

E|------------------------|
B|---------10-12-10-15-12-|
G|-9-11-12----------------|
D|------------------------|
A|------------------------|
E|------------------------|

Ritmo sel solo
E|----------------------------------------------|
B|----------------------------------------------|
G|-----------------------5---7----------------7-|
D|-----------------------5---7----------------7-|
A|-777777777777777777----3---5-77777777777777-5-|
E|----------------------------------------------|

E|---------------------------------------------|
B|---------------------------------------------|
G|-----------------------5----7----------------|
D|-----------------------5----7----------------|
A|-777777777777777777----3----5-77777777777777-|
E|---------------------------------------------|

Parte final
E|-------------------------------------------------------------|
B|-12-10p0-12-10p0-12-10p0-12-10p0-10-9p0-10-9p0-10-9p0-10-9p0-|
G|-------------------------------------------------------------|
D|-------------------------------------------------------------|
A|-------------------------------------------------------------|
E|-------------------------------------------------------------|

E|-----------------------------------------------------------|
B|-12-10p0-12-10p0-12-10p0-12-10p0-14p0-15p0-14p0-12p0-10p0-|
G|----------------------------------------------------------|
D|----------------------------------------------------------|
A|----------------------------------------------------------|
E|----------------------------------------------------------|

E|--------------------------------------------------|
B|-7-5p0-7-5p0-7-5p0-7-5p0-7-5p0-7-5p0-10p0-9p0-7p0-|
G|--------------------------------------------------|
D|--------------------------------------------------|
A|--------------------------------------------------|
E|--------------------------------------------------|

E|-------------------------------------------------|
B|-7-5p0-7-5p0-7-5p0-7-5p0-7-5p0-7-5p0-3p0-5p0-7p0-|
G|-------------------------------------------------|
D|-------------------------------------------------|
A|-------------------------------------------------|
E|-------------------------------------------------|

E|-------------------------------------------------|
B|-55555555555555555555555555555555555555555555555-|
G|-------------------------------------------------|
D|-------------------------------------------------|
A|-------------------------------------------------|
E|-------------------------------------------------|
Composición de Tierra santa
    • ½ Tono
    • Am
    • Bbm
    • Bm
    • Cm
    • C#m
    • Dm
    • Ebm
    • Em
    • Fm
    • F#m
    • Gm
    • G#m
  • Agregar a la lista

    0 comentarios

    Ver todos los comentarios

    ¿Lograste tocar?

    0 Tocaron 0 Aún no

    ¡Graba un video tocando Mi Tierra y envíanoslo!

    00:00 / 00:00
    Outros vídeos desta música
    Repetir Calidad Automático
    Outros vídeos desta música
    00:00 / 00:00
    Automático
    OK